» » »

Mark Ronson - Uptown Funk Rock Version Tabs

Artists:  A B C D E F G H I J K L M N O P Q R S T U V W X Y Z # 

Uptown Funk Rock Version Tabs

(ver. 1) Click to play this song!
Mark Ronson
 Rating:
4.3/5 (21 vote)

 Uptown Funk Rock Version  lessons Tabs too difficult? Try these video lessons and learn fast
 
                Tuning: DADGBe
Key:    D


[Intro]

Dum .. Dah Dum dum ....

G|---------------------------------------------------------------------------| Bass
D|---------------------------------------------------------------------------|
A|---------------------------------------------------------------------------|
D|--0---0--5--3--0--5--3--0-0----------0--5--3--0--5--3--0-0-----------------|x2

e|---------------------------------------------------------------------------|
B|--18-x-18--xxx--18-x-18--xxx--18-x-18--xxxx--12-12-------------------------|
G|--17-x-17--xxx--17-x-17--xxx--16-x-16--xxxx--10-10-------------------------|
D|---------------------------------------------------------------------------|
A|---------------------------------------------------------------------------|
D|---------------------------------------------------------------------------|x2


[Verse] - Play the power chords in time to the bass (like the intro)

Guitar 1 + 2
e|------------------------------------------------------------------|
B|--2------------------------------(2)~-----------------------------|
G|--3------------------------------(3)~-----------------------5-----|
D|--0-------5---3-----5---3------0-(0)~-----5---3-----5---3---5-----|
A|--0----0--5---3--0--5---3--0---0-------0--5---3--0--5---3---3-----|
D|--0----0--5-s-3--0--5-s-3--0---0-------0--5-s-3--0--5-s-3-0-------|x2
PM       .         .         .           .         .        .

Guitar 1
e|------------------------------------------------------------------|
B|--2------------------------------(2)~-----------------------------|
G|--3------------------------------(3)~-----------------------5-----|
D|--0-------5---3-----5---3------0-(0)~-----5---3-----5---3---5-----|
A|--0----0--5---3--0--5---3--0---0-------0--5---3--0--5---3---3-----|
D|--0----0--5-s-3--0--5-s-3--0---0-------0--5-s-3--0--5-s-3-0-------|x2
PM       .         .         .           .         .        .

Guitar 2 (listen out for this in the 'hot damn' part)
e|-------------------------------------------x-x---10-x-10-x-10-------|
B|-------------------------------------------x-x---10-x-10-x-10-------|
G|--5-xx-5--5--5-/-7~------5-xx-5--5--5-/-7--x-x---10-x-10-x-10-------|
D|--5-xx-5--5--5-/-7~------5-xx-5--5--5-/-7--x-x----------------------|
A|--3-xx----------(5)------3-xx---------------------------------------|
D|--------------------------------------------------------------------|x2


[Pre-Chorus] - Follows the vocal pattern

   Girls     Hit  yo'  Hallelujah    (wooh)
e|---------------------------------10-10-10-10------|
B|---------------------------------10-10-10-10------|
G|--5----x----5----x---------7-7---10-10-10-10------|
D|-------x---------x---------7-7--------------------|
A|--3----x----3----x----3-3--5-5--------------------|
D|--------------------------------------------------|x2


   Girls     Hit  yo'   Hal-le-lu-jah     (wooh)
e|---------------------------------------13-13-13-13--------|
B|---------------------------------------13-13-13-13--------|
G|--10---x----10---x----10-10-10-10-------------------------|
D|-------x---------x----10-10-10-10-------------------------|
A|--8----x----8----x----------------------------------------|
D|----------------------------------------------------------|

   Cuz Up Town Funk Gon' Givvitoyah     
e|---------------------------------------13-13-13-13--------|
B|---------------------------------------13-13-13-13--------|
G|--10--10--10--10--10---10-10-10-10------------------------|
D|--10--10--10--10--10---10-10-10-10------------------------|
A|--8-------------------------------------------------------|
D|----------------------------------------------------------|x3

  Saturday night and we're in the spot ...         Don't believe me just watch (Come on!) 
e|------------------------------------------------------------------------------10\\-----|
B|------------------------------------------------------------------------------10\\-----|
G|-10-10-10-10-10-10-10-10-10-10-10-10-10-10-10-10------------------------------10\\-----|
D|-x--x--x--x--x--x--x--x--x--x--x--x--x--x--x--x----5--------5------5h6-----------------|
A|-8--8--8--8--8--8--8--8--8--8--8--8--8--8--8--8---------8-------8-------8--5-----------|
D|---------------------------------------------------------------------------------------|


[Chorus] Follows the verse / intro but with some muted chugs

Guitar 1
e|------------------------------------------------|
B|------------------------------------------------|
G|------------------------------------------------|
D|--0------------3p0--x--5--3-----5--3------------|
A|--0--0-0--0--0-3p0--x--5--3--0--5--3--0---------|
D|--0--0-0--0--0-3p0--x--5--3--0--5--3--0---------|x4
PM     . .  .  .               .        .

Guitar 2 (on 3rd and 4th time)
e|--------------------------x---------------------------------------|
B|--------------------------x---------------------------------------|
G|--7--7-7--7--7---10-/--7--x--12--/--10---7---12--/--10---7--------|
D|--x--x-x--x--x---x--/--x--x--x---/--x----x---x---/--x----x--------|
A|--5--5-5--5--5---8--/--5--x--10--/--8----5---10--/--8----5--------|
D|--------------------------x--------------0---------------0--------|x2

    Don't Believe Me Just Watch!
e|------------------------------xx--10-10-10-10\\-----|
B|------------------------------xx--10-10-10-10\\-----|
G|------------------------------xx--10-10-10-10\\-----|
D|----5--------5-----5h6------------------------------|
A|---------8------8---------8-------------------------|
D|----------------------------------------------------|x3

    Hey ..  Hey ..  Hey ..  HEYY!
e|--10------12------14------15-------------------|
B|--13b15---15b17---17b19---18b20-r18~-----------|
G|-----------------------------------------------|
D|-----------------------------------------------|
A|-----------------------------------------------|
D|-----------------------------------------------|

[Verse]

[Pre-Chorus]

[Chorus]

[Bridge] hold the '18' on the B string until he starts to sing 'Up-town funk you up' and st

e|--------------------------------|
B|---- Hit the wah pedal and -----|
G|---- improvise around the  -----|
D|---- key of D              -----|
A|--------------------------------|
E|--------------------------------|            
Submit corrections


        Uptown Funk Rock Version  lessons Hard to play? Try these video lessons and learn fast Uptown Funk Rock Version  lessons
        
↑ Back to top | Tablatures and chords for acoustic guitar and electric guitar, ukulele, drums are parodies/interpretations of the original songs. You may use it for private study, scholarship, research or language learning purposes only