Home » M » Marina And The Diamonds »

Marina And The Diamonds - Bubblegum Bitch Tabs

Artists:  A B C D E F G H I J K L M N O P Q R S T U V W X Y Z # 

Bubblegum Bitch Tabs

(ver. 1) Click to play this song!
Marina And The Diamonds
This sounds quite close to the song and is generally easy to play, It's played 
throughout the whole song.
Part 1
|---------------------------------------------------------|
|---------------------------------------------------------|
|---------------------------------------------------------|
|-9-9-9-9-4-4-4-4-------------------------0-0-0-0-9-9-9-9-|
|-7-7-7-7-2-2-2-2-5-5-5-5-5-5-5-5-5-5-5-5-0-0-0-0-7-7-7-7-|
|-----------------3-3-3-3-3-3-3-3-3-3-3-3-----------------|

For the pre-chorus, it's:
Part 1
|------------|
|------------|
|-9--4-----4-|
|-9--4--5--4-|
|-7--2--5--2-|
|-------3----|
            
Submit corrections

↑ Back to top | Tablatures and chords for acoustic guitar and electric guitar, ukulele, drums are parodies/interpretations of the original songs. You may use it for private study, scholarship, research or language learning purposes only