Home » M » Marie Digby »

Marie Digby - Unfold Tabs

Artists:  A B C D E F G H I J K L M N O P Q R S T U V W X Y Z # 

Unfold Tabs

(ver. 2) Click to play this song!
Marie Digby
 Rating:
4.5/5 (8 votes)
                hope this is accurate...it's a really beautiful song. 

don't forget to rate please :)enjoy

INTRO: 
  Cadd9  
E---3-----5-----7----10------3----5------7----10------3-3----3-3--|
B----3-----5-----7-----10-----3----5------7-----10-----3-3----3-3-|
G-----------------------------------------------------------------|   
D--2-----------7------------2-----------7------------2------2-----| 
A-3-----5-----7------------3-----5-----7------------3------3------|
E------------0------------------------0---------------------------|

VERSES: 
  Cadd9  
E---3-----5-----7----10------3----5------7----10-----|
B----3-----5-----7-----10-----3----5------7-----10---|
G----------------------------------------------------|
D--2-----------7------------2-----------7------------|
A-3-----5-----7------------3-----5-----7-------------|
E------------0------------------------0--------------|

VERSE:
what i can remember
is alot like water
trickling down a page
of the most beautiful colors
i can't quite put my
finger down on the moment
that i became like ... this

VERSE:
you see, i'm the bravest girl
you will ever come to meet
and yet i shrink down to nothing
at the thought of someone
really seeing me
i think my heart is wrapped around
and tangled up in winding weeds

CHORUS:
Cadd9      
but i don't wanna go on living 
G             
being so afraid of showing
Em7                     D
someone else my.. imperfections
Cadd9 
even though my feet are trembling
G 
and every word i say comes stumbling
Em7            D
i will bare it all..
D         
watch me 
Cadd9 >>*strum the tabs for the verses
unfold, unfold 

VERSE: 
these hands that i hold
behind my back are
bound and broken by my own doing
and i can't feel
anything, anymore
i need a touch to remind me
i'm still real..

CHORUS..

BRIDGE: ****pick these chords instead of strumming..sounds better
Cadd9                   G
my soul is dying to be free 
        Em7                    D
i can't live the rest of my life
D
so guarded
               Cadd9     G
is dying to be free it's up to me to choose..
Em7                  D
what kind of life i lead.

CHORUS

  Cadd9  
E---3-----5-----7----10------3----5------7----10-----|
B----3-----5-----7-----10-----3----5------7-----10---|
G----------------------------------------------------|
D--2-----------7------------2-----------7------------|
A-3-----5-----7------------3-----5-----7-------------|
E------------0------------------------0--------------|

^^^tabs above^^^^
i will allow someone to love me
i will allow someone to love me...

love me.. love me..

repeat intro and fade out.

hope you liked it!
            
Submit corrections

↑ Back to top | Tablatures and chords for acoustic guitar and electric guitar, ukulele, drums are parodies/interpretations of the original songs. You may use it for private study, scholarship, research or language learning purposes only