» » »

Marianas Trench - Shake Tramp Tabs

Artists:  A B C D E F G H I J K L M N O P Q R S T U V W X Y Z # 

Shake Tramp Tabs

(ver. 1) Click to play this song!
Marianas Trench
 Rating:
4/5 (4 votes)

 Shake Tramp lessons Tabs too difficult? Try these video lessons and learn fast
 
                Oops this gonna be my third time sumbiting in last 10 mins lol i keep remembering a
change this should be last change for now ill change rest next week or so.This is my very
tab it took me awhile and im still working on the whole song. I looked all over the 
net and could not find it for myself so in attempts here it is. If you know where i can

2 Guitars:1 Lead,1 Rhythm
This song from what i hear is in standard tuning.

Intro: 0:25-0:37

Gtr1/Lead
e|--------------------------------------------------------------------------|
B|--------------------------------------------------------------------------|
G|--------------------------------------------------------------------------|
D|--4-4-4-4-4-4-4-4-4-4-4-4-4-4-4-4-----------------------------------------|x2
A|--2-2-2-2-2-2-2-2-2-2-2-2-2-2-2-2-------2-2-2-2-2-2-2-2-2-2-2-2-2-2-2-2---|
E|------------------------------------4---0-0-0-0-0-0-0-0-0-0-0-0-0-0-0-0---|
    1 + 2 + 3 + 4 + 1 + 2 + 3 + 4 +  1 +  2 + 3 + 4 + 1 + 2 + 3 + 4 + 1 +

Gtr2/ Rhythm
e|--------------------------------------------------------------------------|
B|--4-4-4-4-4-4-4-4-4-4-4-4-4-4-4-4-------5-5-5-5-5-5-5-5-5-5-5-5-5-5-5-----|
G|--4-4-4-4-4-4-4-4-4-4-4-4-4-4-4-4-------4-4-4-4-4-4-4-4-4-4-4-4-4-4-4-----|
D|--------------------------------------------------------------------------|x2
A|--------------------------------------------------------------------------|
E|--------------------------------------------------------------------------|
    1 + 2 + 3 + 4 + 1 + 2 + 3 + 4 + 1 + 2 + 3 + 4 + 1 + 2 + 3 + 4 + 1 +

Pre-Chorus 0:49-1:00

Gtr1&2/ Lead & Rhythm
e|------------------------------0-------------------------------------------|
B|--4---------------------------0-------------------4-----------------------|
G|--4---------------------------1-------------------4-----------------------|
D|--4---------------------------2-------------------4-----------------------|
A|--2---------------------------x-------------------2-----------------------|
E|--------------------------4---0-------------------------------------------|
    1 + 2 + 3 + 4 + 1 + 2 + 3 + 4 + 1 + 2 + 3 + 4 + 1 + 2 + 3 + 4 + 1 + 2 +

e|-----0------|
B|-----0------|
G|-----1------|
D|-----2------|
A|-----x------|
E|-4---0------|
   3 + 4 + 1 +

Chorus: 1:00-1:19

e|-----UNKNOWN---------------------------------------------------------------|
B|-----UNKNOWN---------------------------------------------------------------|
G|-----UNKNOWN---------------------------------------------------------------|
D|-----UNKNOWN---------------------------------------------------------------|
A|-----UNKNOWN---------------------------------------------------------------|
E|-----UNKNOWN---------------------------------------------------------------|

Bridge?: 1:19-1:25

Gtr1&2/ Lead & Rhythm
e|----------------------------------------------------------------------------|
B|----------------------------------------------------------------------------|
G|-4-4-4-4-4-4-4-4-4-4-4-4-4-4-4-4-------------4-4-4-4-4-4-4-4-4-4-4-4-4-4-4--|
D|-4-4-4-4-4-4-4-4-4-4-4-4-4-4-4-4-6---4--2---4-4-4-4-4-4-4-4-4-4-4-4-4-4-4---|
A|-2-2-2-2-2-2-2-2-2-2-2-2-2-2-2-2-6---4--0----2-2-2-2-2-2-2-2-2-2-2-2-2-2-2--|
E|---------------------------------4---2--------------------------------------|
   1 + 2 + 3 + 4 + 1 + 2 + 3 + 4 + 1 + 2 + 3 + 4 + 1 + 2 + 3 + 4 + 1 + 2 + 3

e|-------|
B|-------|
G|-4-4-4-|
D|-4-4-4-|
A|-2-2-2-|
E|-------|
   + 4 +

Pre-Chorus: 1:25-1:48

Gtr1&2/ Lead & Rhythm
e|------------------------------0-------------------------------------------|
B|--4---------------------------0-------------------4-----------------------|
G|--4---------------------------1-------------------4-----------------------|
D|--4---------------------------2-------------------4-----------------------|
A|--2---------------------------x-------------------2-----------------------|
E|--------------------------4---0-------------------------------------------|
    1 + 2 + 3 + 4 + 1 + 2 + 3 + 4 + 1 + 2 + 3 + 4 + 1 + 2 + 3 + 4 + 1 + 2 +

e|-----0------|
B|-----0------|
G|-----1------|
D|-----2------|x2
A|-----x------|
E|-4---0------|
   3 + 4 + 1 +

I DONT KNOW THE REST YET ILL UPDATE IT L8ER THIS IS DRIVING ME CRAZZILY BORED


Well thats it for now if u no the rest just tell me or post it, i would greatly
it :D. This may not be 100% accurate lol but heh its my first tab. Comment me here and 
            
Submit corrections


        Shake Tramp lessons Hard to play? Try these video lessons and learn fast Shake Tramp lessons
        
↑ Back to top | Tablatures and chords for acoustic guitar and electric guitar, ukulele, drums are parodies/interpretations of the original songs. You may use it for private study, scholarship, research or language learning purposes only