» » »

Marianas Trench - September Tabs

Artists:  A B C D E F G H I J K L M N O P Q R S T U V W X Y Z # 

September Tabs

(ver. 2) Click to play this song!
Marianas Trench
 Rating:
4/5 (4 votes)

 September lessons Tabs too difficult? Try these video lessons and learn fast
 
                Marianas Trench
September


e|---|-----|-----|---|-----|---|-----|------|
B|---|-----|-----|---|-----|---|-----|------|
G|-6-|-----|-----|---|-----|---|-----|------|
D|-6-|-6-6-|-7-6-|-7-|-7-6-|-9-|-7-6-|-2-66-|
A|-4-|-7-6-|-4-4-|-7-|-4-4-|-7-|-4-4-|-2-66-|
D|---|-6-6-|-4-4-|-7-|-4-4-|-7-|-4-4-|-2-66-|x3

Pre-Chorus
e|-------------------------------------|
B|-------------------------------------|
G|------6---------66669999888811111111-|
D|-2-66-6-66-2-66-66669999888811111111-|
A|-2-66-4-66-2-66-444477776666-9-9-9-9-|
D|-2-66---66-2-66----------------------|

Chorus
e|------------------------------------------------------------|
B|------------------------------------------------------------|
G|--------66------------44-----------66-----44-----------(6\)-|
D|-22-xxx-66-xxx-66-xxx-44-44-22-xxx-66-xxx-44-xxx-44-77-(6\)-|
A|-22-xxx-44-xxx-66-xxx-22-44-22-xxx-44-xxx-22-xxx-44-77-(4\)-|
D|-22-xxx----xxx-66-xxx----44-22-xxx----xxx----xxx-44-77------|x2
Only play () on last time

e|---|-----|-----|---|-----|---|-----|------|
B|---|-----|-----|---|-----|---|-----|------|
G|-6-|-----|-----|---|-----|---|-----|------|
D|-6-|-6-6-|-7-6-|-7-|-7-6-|-9-|-7-6-|-2-66-|
A|-4-|-7-6-|-4-4-|-7-|-4-4-|-7-|-4-4-|-2-66-|
D|---|-6-6-|-4-4-|-7-|-4-4-|-7-|-4-4-|-2-66-|x3

Pre-Chorus

Chorus (x2)

e|-----------------------------|
B|-----------------------------|
G|---4-6---4-6---6-------------|
D|-2-4-6-2-4-6-2-6-6-4-303-(2)-|
A|-2-2-4-2-2-4-2-4-6-4-303-(2)-|
D|-2-----2-----2---6-4-303-(2)-|x3
Only play () on last time

e|----|-----|-----------------------------------------|
B|----|-----|-----------------------------------------|
G|----|-----|--------44-----------66-----44-----------|
D|-22-|-----|-66-xxx-44-44-22-xxx-66-xxx-44-xxx-44-77-|
A|-22-|-----|-66-xxx-22-44-22-xxx-44-xxx-22-xxx-44-77-|
D|-22-|-----|-66-xxx----44-22-xxx----xxx----xxx-44-77-|

Chorus (x2)

e|---------------|
B|---------------|
G|---4-6---------|
D|-2-4-6-6-303-2-|
A|-2-2-4-6-303-2-|
D|-2-----6-303-2-|
            
Submit corrections


        September lessons Hard to play? Try these video lessons and learn fast September lessons
        
↑ Back to top | Tablatures and chords for acoustic guitar and electric guitar, ukulele, drums are parodies/interpretations of the original songs. You may use it for private study, scholarship, research or language learning purposes only