» » »

Marianas Trench - Low Tabs

Artists:  A B C D E F G H I J K L M N O P Q R S T U V W X Y Z # 

Low Tabs

(ver. 1) Click to play this song!
Marianas Trench
 Rating:
4/5 (4 votes)

 Low lessons Tabs too difficult? Try these video lessons and learn fast
 
                this tab is basic but its all there,
and as far as i know its the only tab of this song,
you just need to figure out the strumming pattern.

intro
e|--------------------------------|
B|--2-4-4-2-4-4-2-4-4-2-4-4-2-4-4-|
G|--0-2-2-0-2-2-0-2-2-0-2-2-0-2-2-|
D|--------------------------------|
A|--------------------------------|
E|--------------------------------|
repeat 2 more times


e|----------------------------------|
B|----------------------------------|
G|----------------------------------|
D|--3-3-3-------7-7-7-------2-2-2-2-|
A|--1-1-1-5-5-5-5-5-5-4-4-4-0-0-0-0-|
E|--------3-3-3-------2-2-2---------|
repeat 3 more times

verse 1
(i think that the verse has a little guitar
in the backround but i dont know what it is
so onto the first chorus)

chorus

e|--------------------|
B|--------------------|
G|--------------------|
D|--------------------|
A|--5----5----8----8--|
E|--3----2----6----5--| x2
(strum each chord 16 times)

verse 2


chorus
e|----------------------|
B|----------------------|
G|----------------------|
D|----------------------|
A|--5----5----8----8----|
E|--3----2----6----5----|x2
(strum each chord 16 times)

the interlude is just singing but
near the end the guitar starts up as
e|--------------------------------|
B|--2-4-4-2-4-4-2-4-4-2-4-4-2-4-4-|
G|--0-2-2-0-2-2-0-2-2-0-2-2-0-2-2-|
D|--------------------------------|
A|--------------------------------|
E|--------------------------------|

and then its the chorus untill

e|----------------------------------|
B|----------------------------------|
G|----------------------------------|
D|--3-3-3-------7-7-7-------2-2-2-2-|
A|--1-1-1-5-5-5-5-5-5-4-4-4-0-0-0-0-|
E|--------3-3-3-------2-2-2---------|

and it ends on
e|---
B|---
G|---
D|-3-
A|-1-
E|---

or if you've figured out the chorus,
            
Submit corrections


        Low lessons Hard to play? Try these video lessons and learn fast Low lessons
        
↑ Back to top | Tablatures and chords for acoustic guitar and electric guitar, ukulele, drums are parodies/interpretations of the original songs. You may use it for private study, scholarship, research or language learning purposes only