» » »

Marianas Trench - Far From Here Tabs

Artists:  A B C D E F G H I J K L M N O P Q R S T U V W X Y Z # 

Far From Here Tabs

(ver. 2) Click to play this song!
Marianas Trench
 Rating:
4.3/5 (18 votes)

 Far From Here lessons Tabs too difficult? Try these video lessons and learn fast
 
                [Intro]

e|-----------------------------|
B|-----------------------------|
G|-----------------------------|
D|-----------------------------| x2
A|--4h6---4h6---4h6---4h6---4h6|
E|0-----0-----0-----0-----0----|

e|-------------------------------|
B|-------------------------------|
G|------------------4\1---2p1----|
D|----------------------------2/4| x3
A|--4h6-------6h7----------------|
E|0-----0-2p0-----0-----0--------|


[Verse]

e|------------------------------------------------------------------|
B|------------------------------------------------------------------|
G|6---------------7---------------6-----------8-8-8--9-9--11-11-11-7|
D|6---------------x---------------6-----------x-x-x--x-x--x--x--x--x|
A|4---------------7---------------4-----------6-6-6--7-7--9--9--9--7|
E|x---------------0---------------x--------------------------------0|


[Pre-Chorus]

e|-------------------------------|
B|-------------------------------|
G|------------------4\1---2p1----|
D|----------------------------2/4|
A|--4h6-------6h7----------------|
E|0-----0-2p0-----0-----0--------|

e|-------------------------------------------------------------------------------|
B|-------------------------------------------------------------------------------|
G|------------------------------------------------------------------4\1---2p1----|
D|6-----6---------6-----6---------6-----6-------------------------------------2/4|
A|--0-0---0-0-2-0---0-0---0-0-2-0---0-0---0-0-2-0---4h6-------6h7----------------|
E|------------------------------------------------0-----0-2p0-----0-----0--------|


[Chorus]

e|--------------------------------------|
B|--------------------------------------|
G|6-6-6-6-2-2-2-2-9-9-9-11-11-11-9-8-8-8|
D|6-6-6-6-2-2-2-2-x-x-x-x--x--x--x-x-x-x| x2
A|4-4-4-4-0-0-0-0-7-7-7/9--9--9--7\6-6-6|
E|----------------0-0-0-0--0--0--0-0-0-0|

e|-----------------------------------------------|
B|-----------------------------------------------|
G|6-6-6-6-1-1-1-1-4-4-4-4-4-4-4-4-2-2-2-2-2-2-2-2|
D|6-6-6-6-2-2-2-2-4-4-4-4-4-4-4-4-2-2-2-2-2-2-2-2|
A|4-4-4-4-2-2-2-2-2-2-2-2-2-2-2-2-0-0-0-0-0-0-0-0|
E|--------0-0-0-0--------------------------------|


[Verse]

e|------------------------------------------------------------------|
B|------------------------------------------------------------------|
G|6---------------7---------------6-----------8-8-8--9-9--11-11-11-7|
D|6---------------x---------------6-----------x-x-x--x-x--x--x--x--x|
A|4---------------7---------------4-----------6-6-6--7-7--9--9--9--7|
E|x---------------0---------------x--------------------------------0|


[Pre-Chorus]

e|-------------------------------|
B|-------------------------------|
G|------------------4\1---2p1----|
D|----------------------------2/4|
A|--4h6-------6h7----------------|
E|0-----0-2p0-----0-----0--------|

e|-------------------------------------------------------------------------------|
B|-------------------------------------------------------------------------------|
G|------------------------------------------------------------------4\1---2p1----|
D|6-----6---------6-----6---------6-----6-------------------------------------2/4|
A|--0-0---0-0-2-0---0-0---0-0-2-0---0-0---0-0-2-0---4h6-------6h7----------------|
E|------------------------------------------------0-----0-2p0-----0-----0--------|


[Chorus]

e|--------------------------------------|
B|--------------------------------------|
G|6-6-6-6-2-2-2-2-9-9-9-11-11-11-9-8-8-8|
D|6-6-6-6-2-2-2-2-x-x-x-x--x--x--x-x-x-x| x2
A|4-4-4-4-0-0-0-0-7-7-7/9--9--9--7\6-6-6|
E|----------------0-0-0-0--0--0--0-0-0-0|

e|-----------------------------------------------|
B|-----------------------------------------------|
G|6-6-6-6-1-1-1-1-4-4-4-4-4-4-4-4-2-2-2-2-2-2-2-2|
D|6-6-6-6-2-2-2-2-4-4-4-4-4-4-4-4-2-2-2-2-2-2-2-2|
A|4-4-4-4-2-2-2-2-2-2-2-2-2-2-2-2-0-0-0-0-0-0-0-0|
E|--------0-0-0-0--------------------------------|


[Bridge]

e|---------------|
B|---------------|
G|5-2-9-5-2-9-5-2|
D|5-2-x-5-2-x-5-2|
A|3-0-7-3-0-7-3-0|
E|----0-----0----|

e|------------------|
B|------------------|
G|8-8-------8-8-9-11|
D|9-9-------9-9-9-11| x3
A|7-7-------7-7-7-9-|
E|x-0-0-0-0-x-0-0-0-|


[Last choruses]

  PM-----------------------------------|
e|--------------------------------------|
B|--------------------------------------|
G|6-6-6-6-2-2-2-2-9-9-9-11-11-11-9-8-8-8|
D|6-6-6-6-2-2-2-2-x-x-x-x--x--x--x-x-x-x|  x2 
A|4-4-4-4-0-0-0-0-7-7-7/9--9--9--7\6-6-6|
E|----------------0-0-0-0--0--0--0-0-0-0|

e|-----------------------------------------------|
B|-----------------------------------------------|
G|6-6-6-6-1-1-1-1-4-4-4-4-4-4-4-4-2-2-2-2-2-2-2-2|
D|6-6-6-6-2-2-2-2-4-4-4-4-4-4-4-4-2-2-2-2-2-2-2-2|
A|4-4-4-4-2-2-2-2-2-2-2-2-2-2-2-2-0-0-0-0-0-0-0-0|
E|--------0-0-0-0--------------------------------|

e|---------------------------------------------------------------|
B|---------------------------------------------------------------|
G|1-1-1-1-1-1-1-1-4-4-x-4-4-4-x-4-4-4-x-4-4-4-x-4-2-2-2-2-2-2-2-2|
D|2-2-2-2-2-2-2-2-4-4-x-4-4-4-x-4-4-4-x-4-4-4-x-4-2-2-2-2-2-2-2-2|
A|2-2-2-2-2-2-2-2-2-2-x-2-2-2-x-2-2-2-x-2-2-2-x-2-0-0-0-0-0-0-0-0|
E|0-0-0-0-0-0-0-0------------------------------------------------|


[Outro]

e|----0|
B|----0|
G|5-2-1|
D|5-2-2|
A|3-0-2|
E|----0|            
Submit corrections


        Far From Here lessons Hard to play? Try these video lessons and learn fast Far From Here lessons
        
↑ Back to top | Tablatures and chords for acoustic guitar and electric guitar, ukulele, drums are parodies/interpretations of the original songs. You may use it for private study, scholarship, research or language learning purposes only