» » »

Marianas Trench - Cross My Heart Tabs

Artists:  A B C D E F G H I J K L M N O P Q R S T U V W X Y Z # 

Cross My Heart Tabs

(ver. 3) Click to play this song!
Marianas Trench
 Rating:
4/5 (7 votes)

 Cross My Heart lessons Tabs too difficult? Try these video lessons and learn fast
 
                Marianas Trench
Cross My Heart

Guitar one: Standard Tuning
Guitar Two: Standard Tuning
Bass: Standard Tuning
-----
Intro|

Guitar One:
e|---x-----x---x------|
B|---x-----x---x------|
G|---x-----x---x------|
D|-7-x-4-4-x---x-2-2--|
A|-5-x-2-2-x-5-x-2-2--|
E|---x-----x-3-x-0-0--|

Guitar Two:
e|----------------|
B|-5-7-5-3-5-5/7--|
G|----------------|
D|----------------|
A|----------------|
E|----------------|


Verse

Both Guitars
e|---------------------------------------|
B|---------------------------------------|
G|---------------------------------------|
D|-7-7-----------------------------------|
A|-5-5---7-7---9-9---5-5---4/5-5--4/5-5--|
E|-------5-5---7-7---3-3---2/3-3--2/3-3--|

----------
Pre-Chorus|

Both Guitars
e|------------|
B|------------|
G|-2-----4----|
D|-2-----4----|
A|-0-----2----|
E|------------|
Palm Muted Through Whole Pre-Chorus.


------
Chorus|

Both Guitars
e|---x-----x---x------|
B|---x-----x---x------|
G|---x-----x---x------|
D|-7-x-4-4-x---x-2-2--|
A|-5-x-2-2-x-5-x-2-2--|
E|---x-----x-3-x-0-0--|

---------
Interlude|

Both Guitars
e|-------------------------------------|
B|-------------------------------------|
G|-2-----2-7-6/0--2-7-6/0---9---5---7--|
D|-2-----2-7-6/0--2-7-6/0---9---5---7--|
A|-0-----0-5-4/0--0-5-4/0---7---3---5--|
E|-------
Starts off Palm-Muted, then slammin'  on the guitar, Then...

------
Ending|
Both Guitars
e|---x-----x---x------|
B|---x-----x---x------|
G|---x-----x---x------|
D|-7-x-4-4-x---x-2-2--|
A|-5-x-2-2-x-5-x-2-2--|
E|---x-----x-3-x-0-0--|


[Then Nothing]
            
Submit corrections


        Cross My Heart lessons Hard to play? Try these video lessons and learn fast Cross My Heart lessons
        
↑ Back to top | Tablatures and chords for acoustic guitar and electric guitar, ukulele, drums are parodies/interpretations of the original songs. You may use it for private study, scholarship, research or language learning purposes only