» » »

Marianas Trench - By Now Tabs

Artists:  A B C D E F G H I J K L M N O P Q R S T U V W X Y Z # 

By Now Tabs

(ver. 2) Click to play this song!
Marianas Trench
 Rating:
4/5 (4 votes)

 By Now lessons Tabs too difficult? Try these video lessons and learn fast
 
                -----------------------------------------------------------------------------
                             By Now - Marianas Trench
-----------------------------------------------------------------------------


My first tab. Comment, rate, enjoy!

As for a strumming pattern with the chorus chords, I strum each chord down 4 times, but 
feel free to do what you want and make it your own!

Tuning: Standard (EADGBe)

Intro:

e|-2-2-2-2-2-2-0-0-0-0-0-0-0-0-x-x-------------------------------------------|
B|-3-3-3-3-3-3-3-3-3-3-3-3-3-3-3-3-------------------------------------------|
G|-4-4-4-4-0-0-0-0-2-2-2-2-0-0-0-0-------------------------------------------|
D|-x-x-x-x-x-x-x-x-x-x-x-x-x-x-x-x-------------------------------------------|
A|-x-x-x-x-x-x-x-x-x-x-x-x-x-x-x-x-------------------------------------------|
E|-x-x-x-x-x-x-x-x-x-x-x-x-x-x-x-x-------------------------------------------|

Verse 1 (same as intro):
  Been...  in...   things...
e|-2-2-2-2-2-2-0-0-0-0-0-0-0-0-x-x-------------------------------------------|
B|-3-3-3-3-3-3-3-3-3-3-3-3-3-3-3-3-------------------------------------------|
G|-4-4-4-4-0-0-0-0-2-2-2-2-0-0-0-0-------------------------------------------|
D|-x-x-x-x-x-x-x-x-x-x-x-x-x-x-x-x-------------------------------------------|
A|-x-x-x-x-x-x-x-x-x-x-x-x-x-x-x-x-------------------------------------------|
E|-x-x-x-x-x-x-x-x-x-x-x-x-x-x-x-x-------------------------------------------|
   Say...  hear... ear...
e|-2-2-2-2-2-2-0-0-0-0-0-0-0-0-x-x-------------------------------------------|
B|-3-3-3-3-3-3-3-3-3-3-3-3-3-3-3-3-------------------------------------------|
G|-4-4-4-4-0-0-0-0-2-2-2-2-0-0-0-0-------------------------------------------|
D|-x-x-x-x-x-x-x-x-x-x-x-x-x-x-x-x-------------------------------------------|
A|-x-x-x-x-x-x-x-x-x-x-x-x-x-x-x-x-------------------------------------------|
E|-x-x-x-x-x-x-x-x-x-x-x-x-x-x-x-x-------------------------------------------|




Pre-chorus:
... taking you for granted and I...
e|-2-2-2-2-------------------------------------------------------------------|
B|-3-3-3-3-------------------------------------------------------------------|
G|-4-4-4-4-------------------------------------------------------------------|
D|-x-x-x-x-------------------------------------------------------------------|
A|-x-x-x-x-------------------------------------------------------------------|
E|-x-x-x-x-------------------------------------------------------------------|
        (D)                           (A)                       (Bm)
Chorus: Thought you'd feel the same as me, it's time that I come clean, but
               (G)                       (D)
But for now can we just both pretend to sleep
                     (A)                     (Bm)
Sometimes the one you want is not the one you need
                      (G)                             (no chord)
What goes around don't come around, you should know me by now
(D)
Better than, better than, better (should know me)
(A)
Better than, better than, better (should know me)
(Bm)
Better than, better than, better (should know me)
(G)
Better than (I should know you as well)
(D)
Better than, better than, better (should know me)
(A)
Better than, better than, better (should know me)
(Bm)
Better than, better than, better (should know me)
(A)
Better than (You should know me by now)

Verse 2:
           Small...tall...
e|-2-2-2-2-2-2-0-0-0-0-0-0-0-0-x-x-------------------------------------------|
B|-3-3-3-3-3-3-3-3-3-3-3-3-3-3-3-3-------------------------------------------|
G|-4-4-4-4-0-0-0-0-2-2-2-2-0-0-0-0-------------------------------------------|
D|-x-x-x-x-x-x-x-x-x-x-x-x-x-x-x-x-------------------------------------------|
A|-x-x-x-x-x-x-x-x-x-x-x-x-x-x-x-x-------------------------------------------|
E|-x-x-x-x-x-x-x-x-x-x-x-x-x-x-x-x-------------------------------------------|
   Keys... bills...spill...
e|-2-2-2-2-2-2-0-0-0-0-0-0-0-0-x-x-------------------------------------------|
B|-3-3-3-3-3-3-3-3-3-3-3-3-3-3-3-3-------------------------------------------|
G|-4-4-4-4-0-0-0-0-2-2-2-2-0-0-0-0-------------------------------------------|
D|-x-x-x-x-x-x-x-x-x-x-x-x-x-x-x-x-------------------------------------------|
A|-x-x-x-x-x-x-x-x-x-x-x-x-x-x-x-x-------------------------------------------|
E|-x-x-x-x-x-x-x-x-x-x-x-x-x-x-x-x-------------------------------------------|

Pre-chorus:
... taking me for granted and I...
e|-2-2-2-2-------------------------------------------------------------------|
B|-3-3-3-3-------------------------------------------------------------------|
G|-4-4-4-4-------------------------------------------------------------------|
D|-x-x-x-x-------------------------------------------------------------------|
A|-x-x-x-x-------------------------------------------------------------------|
E|-x-x-x-x-------------------------------------------------------------------|

Chorus
       (Bm)                            (G)
Bridge: I know that I remember you, and I think that you remember me too
(D)              (A)
How can one of us still feel blessed when the other one's lost
(Bm)                                    (G)
I know you've got to feel the change, it just stays worse when it stays the same
(D)              (A)
How can one of us still feel blessed when the other one's so…

ooooooooooo   looooooost
e|-2-2-2-2-2-2-0-0-0-0-0-0-0-------------------------------------------------|
B|-3-3-3-3-3-3-3-3-3-3-3-3-3-------------------------------------------------|
G|-4-4-4-4-0-0-0-0-2-2-2-2-0-------------------------------------------------|
D|-x-x-x-x-x-x-x-x-x-x-x-x-x-------------------------------------------------|
A|-x-x-x-x-x-x-x-x-x-x-x-x-x-------------------------------------------------|
E|-x-x-x-x-x-x-x-x-x-x-x-x-x-------------------------------------------------|
          (D)       (A)        (Bm)        (G)
Chorus: By nooooooooooooooooow, hey hey hey heyheyhey
                     (A)                     (Bm)
Sometimes the one you want is not the one you need
                      (G)
What goes around don't come around, you should know me by now
(D)
Better than, better than, better (should know me)
(A)
Better than, better than, better (should know me)
(Bm)
Better than, better than, better (should know me)
(G)
Better than (I should know you as well)
(D)
Better than, better than, better (should know me)
(A)
Better than, better than, better (should know me)
(Bm)
Better than, better than, better (should know me)
(A)                                    (D)
Better than (You should know me by now)
            
Submit corrections


        By Now lessons Hard to play? Try these video lessons and learn fast By Now lessons
        
↑ Back to top | Tablatures and chords for acoustic guitar and electric guitar, ukulele, drums are parodies/interpretations of the original songs. You may use it for private study, scholarship, research or language learning purposes only