» » »

Marianas Trench - All To Myself Tabs

Artists:  A B C D E F G H I J K L M N O P Q R S T U V W X Y Z # 

All To Myself Tabs

(ver. 3) Click to play this song!
Marianas Trench
 Rating:
4/5 (13 votes)

 All To Myself lessons Tabs too difficult? Try these video lessons and learn fast
 
                Band: Marianas Trench

Guitar 1 - Lead (Matt Webb)
Guitar 2 - Rhythm (Josh Ramsay)

Note: I changed the whole tab completely to make it exactly how I play it...so it should 
spot on. (September 8th, 2009)

Verse 1
Guitar 2
E|-------------------------|
B|-------------------------|
G|-------------------------|
D|-44---44---88---99--1111-| (3x)
A|-44---44---88---99--1111-|
E|-22---22---66---77---9-9-|

E|---------------------------|
B|---------------------------|
G|-------------------------~-|
D|-44-44-44-44-88-99-1111-4~-|
A|-44-44-44-44-88-99-1111-4~-|
E|-22-22-22-22-66-77--9-9-2~-|

Pre-chorus
Both guitars
E|-----------------------------------------------------------|
B|-----------------------------------------------------------|
G|-----------------------------------------------------------|
D|-4—-4—-4--4--4--4--4--4--4--8--8--8--8—-9--9--9—-9—-11—-11-|
A|-4—-4—-4--4--4--4--4--4--4--8--8--8--8—-9--9--9--9—-11—-11-|
E|-2—-2—-2--2--2--2--2--2--2--6--6--6--6—-7--7--7--7---9---9-|

E|-----------------------------------------------------------|
B|-----------------------------------------------------------|
G|-----------------------------------------------------------|
D|-4—-4—-4--4--4--4--4--4--4--8--8--8--8—-9--9--9—-9—-11—-11-|
A|-4—-4—-4--4--4--4--4--4--4--8--8--8--8—-9--9--9--9—-11—-11-|
E|-2—-2—-2--2--2--2--2--2--2--6--6--6--6—-7--7--7--7---9---9-|

Chorus
E|-----------------------------------------|
B|-----------------------------------------|
G|-----------------------------------------|
D|-4-4-4-4-4-4-4-4-4-8-8-8-8-9-9-9-9-11-11-|
A|-4-4-4-4-4-4-4-4-4-8-8-8-8-9-9-9-9-11-11-|
E|-2-2-2-2-2-2-2-2-2-6-6-6-6-7-7-7-7--9--9-|

E|-----------------------------------------|
B|-----------------------------------------|
G|-----------------------------------------|
D|-4-4-4-4-4-4-4-4-4-8-8-8-8-9-9-9-9-11-11-|
A|-4-4-4-4-4-4-4-4-4-8-8-8-8-9-9-9-9-11-11-|
E|-2-2-2-2-2-2-2-2-2-6-6-6-6-7-7-7-7--9--9-|

Verse 2

Guitar 2
E|--------------------------|
B|--------------------------|
G|-33---33---77---66---1010-|
D|-44---44---88---99---1111-| (3x)
A|-44---44---88---99---1111-|
E|-22---22---66---77----9-9-|

E|---------------------------|
B|---------------------------|
G|-33-33-33-33-77-66-1010-3~-|
D|-44-44-44-44-88-99-1111-4~-|
A|-44-44-44-44-88-99-1111-4~-|
E|-22-22-22-22-66-77--9-9-2~-|

Back to Pre-chorus and chorus

Solo and Bridge

Coming soon

Chorus
E|-----------------------------------------|
B|-----------------------------------------|
G|-----------------------------------------|
D|-4-4-4-4-4-4-4-4-4-8-8-8-8-9-9-9-9-11-11-|
A|-4-4-4-4-4-4-4-4-4-8-8-8-8-9-9-9-9-11-11-|
E|-2-2-2-2-2-2-2-2-2-6-6-6-6-7-7-7-7--9--9-|

E|-----------------------------------------|
B|-----------------------------------------|
G|-----------------------------------------|
D|-4-4-4-4-4-4-4-4-4-8-8-8-8-9-9-9-9-11-11-|
A|-4-4-4-4-4-4-4-4-4-8-8-8-8-9-9-9-9-11-11-|
E|-2-2-2-2-2-2-2-2-2-6-6-6-6-7-7-7-7--9--9-|

Outro
Guitar 1
E|-----------|
B|-33-33-33~-|
D|-44-44-44~-|
A|-44-44-44~-|
E|-22-22-22~-|
            
Submit corrections


        All To Myself lessons Hard to play? Try these video lessons and learn fast All To Myself lessons
        
↑ Back to top | Tablatures and chords for acoustic guitar and electric guitar, ukulele, drums are parodies/interpretations of the original songs. You may use it for private study, scholarship, research or language learning purposes only