» » »

Marianas Trench - Acadia Tabs

Artists:  A B C D E F G H I J K L M N O P Q R S T U V W X Y Z # 

Acadia Tabs

(ver. 2) Click to play this song!
Marianas Trench
 Rating:
4/5 (5 votes)

 Acadia lessons Tabs too difficult? Try these video lessons and learn fast
 
                Band: Marianas Trench

Guitar 1 - Rhythm (Josh Ramsay)
Guitar 2 - Lead (Matt Webb)

Notes: - In verse two the lead guitar starts after the first guitar completes the 
           chord progression once.
       - In verse three the first guitar starts after the lead guitar completes 
           the progression once.
       - During the bridge from 2:10 to 2:28 there is a piano part. This will be up soon.
       - Chorus, Bridge, and Outro was written by ljubavjelijepa.

Intro:
Guitar 1
E|-222-222-222-222-000-000-000-000-222-222-222-222-333-333-333-333-|
B|-333-333-333-333-222-222-222-222-333-333-333-333-333-333-333-333-|
G|-222-222-222-222-222-222-222-222-222-222-222-222-000-000-000-000-|
D|-000-000-000-000-222-222-222-222-000-000-000-000-000-000-000-000-| 2x
A|-----------------000-000-000-000-----------------222-222-222-222-|
E|-------------------------------------------------333-333-333-333-|

Verse 1:
Guitar 1
E|-222-222-222-222-000-000-000-000-222-222-222-222-333-333-333-333-|
B|-333-333-333-333-222-222-222-222-333-333-333-333-333-333-333-333-|
G|-222-222-222-222-222-222-222-222-222-222-222-222-000-000-000-000-|
D|-000-000-000-000-222-222-222-222-000-000-000-000-000-000-000-000-| 3x
A|-----------------000-000-000-000-----------------222-222-222-222-|
E|-------------------------------------------------333-333-333-333-|

Guitar 2
E|-5-5-5-5-5-5-5-5-5-5-5-5-5-5-5-5-3-3-3-3--|
B|--3-3-3-3-3-3-3-3-3-3-3-3-3-3-3-3-3-3-3-3-|
G|------------------------------------------|
D|------------------------------------------|  2x
A|------------------------------------------|
E|------------------------------------------|

Chorus:
Both Guitars
E|------------------------------------------------------------------------|
B|-44444444--------------------------44444444-77777777------------------7~|
G|-44444444-666666666666666666666666-44444444-77777777-6666666666666666-7~|
D|-44444444-777777777777777777777777-44444444-77777777-7777777777777777-7~|
A|-22222222-777777777777777777777777-22222222-55555555-7777777777777777-5~|
E|----------555555555555555555555555-------------------5555555555555555---|

Verse 2:
Guitar 1
E|-222-222-222-222-000-000-000-000-222-222-222-222-333-333-333-333-|
B|-333-333-333-333-222-222-222-222-333-333-333-333-333-333-333-333-|
G|-222-222-222-222-222-222-222-222-222-222-222-222-000-000-000-000-|
D|-000-000-000-000-222-222-222-222-000-000-000-000-000-000-000-000-| 2x
A|-----------------000-000-000-000-----------------222-222-222-222-|
E|-------------------------------------------------333-333-333-333-|

Guitar 2
E|-5-5-5-5-5-5-5-5-5-5-5-5-5-5-5-5-3-3-3-3--|
B|--3-3-3-3-3-3-3-3-3-3-3-3-3-3-3-3-3-3-3-3-|
G|------------------------------------------|
D|------------------------------------------|  3x
A|------------------------------------------|
E|------------------------------------------|

Chorus:
Both Guitars
E|------------------------------------------------------------------------|
B|-44444444--------------------------44444444-77777777------------------7~|
G|-44444444-666666666666666666666666-44444444-77777777-6666666666666666-7~|
D|-44444444-777777777777777777777777-44444444-77777777-7777777777777777-7~|
A|-22222222-777777777777777777777777-22222222-55555555-7777777777777777-5~|
E|----------555555555555555555555555-------------------5555555555555555---|

Bridge:
Guitar 2
E|------------------------------------------------------------------------|
B|--------------7-----------------------------7---------------------------|
G|--------------7-----------6--4-----------6--7-----------6--4----------6-|
D|--------------7-----------7--5-----------7--7-----------7--5----------7-| 
A|--------------5-----------7--5-----------7--5-----------7--5----------7-|
E|--------------------------5--3-----------5--------------5--3----------5-|

Chorus:
Both Guitars
e|------------------------------------------------------------------------|
B|-44444444--------------------------44444444-77777777------------------7-|
G|-44444444-666666666666666666666666-44444444-77777777-6666666666666666-7-|x1
D|-44444444-777777777777777777777777-44444444-77777777-7777777777777777-7-|
A|-22222222-777777777777777777777777-22222222-55555555-7777777777777777-5-|
E|----------555555555555555555555555-------------------5555555555555555---|

Outro
Both Guitars
E|-------------------------------------|
B|--77777777---------44444444----------|
G|--77777777---------44444444----------|
D|--777777776666666664444444444444444--|x2
A|--555555557777777772222222255555555--|
E|----------555555555--------33333333--|

End on:
E|---|
B|-7~|
G|-7~|
D|-7~|
A|-5~|
E|---|
            
Submit corrections


        Acadia lessons Hard to play? Try these video lessons and learn fast Acadia lessons
        
↑ Back to top | Tablatures and chords for acoustic guitar and electric guitar, ukulele, drums are parodies/interpretations of the original songs. You may use it for private study, scholarship, research or language learning purposes only