» » »

Margot And The Nuclear So And Sos - A Light On A Hill Tabs

Artists:  A B C D E F G H I J K L M N O P Q R S T U V W X Y Z # 

A Light On A Hill Tabs

(ver. 1) Click to play this song!
Margot And The Nuclear So And Sos
 Rating:
4/5 (8 votes)

 A Light On A Hill lessons Tabs too difficult? Try these video lessons and learn fast
 
                My version is a bit more strumming, but I feel it makes it sound better for when this 
is being played solo/acoustic.

Standard tuning
Capo 5th

(Verse - repeat)

e------------------------------------------------|
b-----0-0--0-3--3-3-3-3-3------0-0--0-3--3-3-3-3-|
g-----0------0--0-0-0-0-0------0------0--0-0-0-0-|
d--2--2------2--2-2-2-2-2------0------0--0-0-0-0-|
a--2--2------2--2-2-2-2-2---0--0------0--0-0-0-0-|
E---------------------------2--2------2--2-2-2-2-|


e--------------------------------------2--2-|
b------0-0--0-3--3--3-------3--3-------0--0-|
g------0------0--0--0-------0--0-------0--0-|
d--0h3-2------2--2--2-------0--0-------0--0-|
a--0h3-3------3--3--3----0--0--0----0--0--0-|
E------------------------3--3--3----2--2--2-|

OR (which I think is used the 3ed and 4th time though)

e------------------------------------------0-2--0-|
b------0-0--0-3--3-3-3-3------3-3-3-3------0-0--0-|
g------0------0--0-0-0-0------0-0-0-0------0------|
d--0h2-2------2--2-2-2-2------0-0-0-0------0------|
a--0h3-3------3--3-3-3-3---0--0-0-0-0---0--0------|
E--------------------------3--3-3-3-3---2--2------|

(Chorus - play twice)

e-0---0-0---0-0--0-0-0-0-----0---0-0---0-0--0-0-0-0-----0---0-0---0-0---0--0-0-|
b-1---1-1---1-1--1-1-1-1-----0---0-0---0-0--0-0-0-0-----1---1-1---1-1---1--1-1-|
g-2---2-2---2-2--2-2-2-2-----0---0-0---0-0--0-0-0-0-----0---0-0---0-0---0--0-0-|
d-2---2-2---2-2--2-2-2-2-----2---2-2---2-2--2-2-2-2-----2---2-2---2-0h2-2--2-2-|
a-0---0-0---0-0--0-0-0-0-----2---2-2---2-2--2-2-2-2-----3---3-3---3-3---3--3-3-|
E------------------------------------------------------------------------------|

e----0-0-0-0-------0-0-0-0-|
b----1-1-1-1-------1-1-1-1-|
g----0-0-0-0-------0-0-0-0-|
d----0-0-0-0-------0-0-0-0-|
a-2--2-2-2-2----0--0-0-0-0-|
E-3--3-3-3-3----2--2-2-2-2-|
            
Submit corrections


        A Light On A Hill lessons Hard to play? Try these video lessons and learn fast A Light On A Hill lessons
        
↑ Back to top | Tablatures and chords for acoustic guitar and electric guitar, ukulele, drums are parodies/interpretations of the original songs. You may use it for private study, scholarship, research or language learning purposes only