Home » M » Marduk »

Marduk - Warschau Tabs

Artists:  A B C D E F G H I J K L M N O P Q R S T U V W X Y Z # 

Warschau Tabs

(ver. 1) Click to play this song!
Marduk
 Rating:
4/5 (4 votes)
                Band:  Marduk

Copyright (c)  Blooddawn Productions 2004


Tuning: EADGBe

e ----------------------------------------------------------------|
B ----------------------------------------------------------------|
G ----------------------------------------------------------------|
D -4-55-44-5-4-55-44-5-4-55-44-4-5-9-8-5--------------------------|
A -4-------5-4-------5-4-------4-5-9-8-5--------------------------|
E -2-------3-2-------3-2-------2-3-7-6-3--------------------------|

e ----------------------------------------------------------------|
B ----------------------------------------------------------------|
G ----------------------------------------------------------------|
D -------999------101010---9988-----------------------------------|
A ----777------777--------------101099-7799-101066----------------|
E -000------000---------000---------------------------------------| x4
Crushing resistance, inflicting pain
Fierce devotion, reign of terror
Draconian measures, sealing their fates
Proudly displaying achievements in blood
e ----------------------------------------------------------------|
B ----------------------------------------------------------------|
G ----------------------------------------------------------------|
D -4-55-44-5-4-55-44-5-4-55-44-4-5-9-8-5--------------------------|
A -4-------5-4-------5-4-------4-5-9-8-5--------------------------|
E -2-------3-2-------3-2-------2-3-7-6-3--------------------------| x4
   WARSCHAU                              WARSCHAU
   WARSCHAU                              WARSCHAU
e ----------------------------------------------------------------|
B ----------------------------------------------------------------|
G ----------------------------------------------------------------|
D -------999------101010---9988-----------------------------------|
A ----777------777--------------101099-7799-101066----------------|
E -000------000---------000---------------------------------------| x4
Overkill supreme, bloodletting
Sacrifice, blood is the price of victory
Iron claws descend, ruling with supremacy
Declaration of death, damnations pride
e ----------------------------------------------------------------|
B ----------------------------------------------------------------|
G ----------------------------------------------------------------|
D -0000-7677766663333-0000-767778888------------------------------|
A ----------------------------------------------------------------|
E ----------------------------------------------------------------| x2

e ----------------------------------------------------------------|
B ----------------------------------------------------------------|
G ----------------------------------------------------------------|
D ----------------------------------------------------------------|
A -0000-7677766663333-0000-767778888------------------------------|
E ----------------------------------------------------------------| x2

e ----------------------------------------------------------------|
B ----------------------------------------------------------------|
G ----------------------------------------------------------------|
D -4-55-44-5-4-55-44-5-4-55-44-4-5-9-8-5--------------------------|
A -4-------5-4-------5-4-------4-5-9-8-5--------------------------|
E -2-------3-2-------3-2-------2-3-7-6-3--------------------------| x4

e ----------------------------------------------------------------|
B ----------------------------------------------------------------|
G ----------------------------------------------------------------|
D -444444-555-444444-777------------------------------------------|
A -444444-333-444444-777------------------------------------------|
E -222222-333-222222-555------------------------------------------| x2
Eye for an eye, death for death
Panzerclaw retaliate, Blood and Dust!
e ----------------------------------------------------------------|
B ----------------------------------------------------------------|
G ----------------------------------------------------------------|
D -55555-44-55-44-77-88888-77-88-77-88-1111-----------------------|
A -33333-22-33-22-55-66666-55-66-55-66-9-9------------------------|
E ----------------------------------------------------------------| x2

e ----------------------------------------------------------------|
B ----------------------------------------------------------------|
G ----------------------------------------------------------------|
D -444444-555-444444-777------------------------------------------|
A -444444-333-444444-777------------------------------------------|
E -222222-333-222222-555------------------------------------------| x4
Annihilation, obliteration, cremation
Declaration of Death, Genocide triumphant
e ----------------------------------------------------------------|
B ----------------------------------------------------------------|
G ----------------------------------------------------------------|
D -55555-44-55-44-77-88888-77-88-77-88-1111-----------------------|
A -33333-22-33-22-55-66666-55-66-55-66-9-9------------------------|
E ----------------------------------------------------------------| x2

e ----------------------------------------------------------------|
B ----------------------------------------------------------------|
G ----------------------------------------------------------------|
D -------999------101010---9988-----------------------------------|
A ----777------777--------------101099-7799-101066----------------|
E -000------000---------000---------------------------------------| x4
Crushing resistance, inflicting pain
Fierce devotion, reign of terror
Draconian measures, sealing their fates
Proudly displaying moments in blood
e ----------------------------------------------------------------|
B ----------------------------------------------------------------|
G ----------------------------------------------------------------|
D -4-55-44-5-4-55-44-5-4-55-44-4-5-9-8-5--------------------------|
A -4-------5-4-------5-4-------4-5-9-8-5--------------------------|
E -2-------3-2-------3-2-------2-3-7-6-3--------------------------| x4
   WARSCHAU                    WARSCHAU
   WARSCHAU                    WARSCHAU
e ----------------------------------------------------------------|
B ----------------------------------------------------------------|
G ----------------------------------------------------------------|
D -------999------101010---9988-----------------------------------|
A ----777------777--------------101099-7799-101066----------------|
E -000------000---------000---------------------------------------| x4
Overkill supreme, bloodletting
Sacrifice, blood is the price of victory
Iron claws descend, ruling with supremacy
Declaration of death, damnations pride
e ----------------------------------------------------------------|
B ----------------------------------------------------------------|
G ----------------------------------------------------------------|
D -0000-7677766663333-0000-767778888------------------------------|
A ----------------------------------------------------------------|
E ----------------------------------------------------------------| x2

e ----------------------------------------------------------------|
B ----------------------------------------------------------------|
G ----------------------------------------------------------------|
D ----------------------------------------------------------------|
A -0000-7677766663333-0000-767778888------------------------------|
E ----------------------------------------------------------------| x2

e ----------------------------------------------------------------|
B ----------------------------------------------------------------|
G ----------------------------------------------------------------|
D -4-55-44-5-4-55-44-5-4-55-44-4-5-9-8-5--------------------------|
A -4-------5-4-------5-4-------4-5-9-8-5--------------------------|
E -2-------3-2-------3-2-------2-3-7-6-3--------------------------| x4
   WARSCHAU                    WARSCHAU
   WARSCHAU                    WARSCHAU
            
Submit corrections

↑ Back to top | Tablatures and chords for acoustic guitar and electric guitar, ukulele, drums are parodies/interpretations of the original songs. You may use it for private study, scholarship, research or language learning purposes only