Home » M » Marduk »

Marduk - Untrodden Paths Tabs

Artists:  A B C D E F G H I J K L M N O P Q R S T U V W X Y Z # 

Untrodden Paths Tabs

(ver. 1) Click to play this song!
Marduk
 Rating:
2.5/5 (26 votes)
                e|---------------------------------------------------------------------------|
B|---------------------------------------------------------------------------| INTRO + VERSE
G|---------------------------------------------------------------------------| fast tempo
D|---------------------------------------------------2-2-2--4-4-4------------|
A|----------6-6-6--7-7--6------------6-6-6--7-7--6---0-0-0--2-2-2------------|
E|---4-4-4-------------------4-4-4-------------------------------------------|


e|---------------------------------------------------------------------------|
B|---------------------------------------------------------------------------|HARMONY FIGURE
G|-----------------6-6-6--7-7----------------------6-6-6--7-7--4--7----------|
D|----------6-6-6-------------7--4----------6-6-6----------------------------|
A|---4-4-4---------------------------4-4-4-----------------------------------|
E|---------------------------------------------------------------------------|


e|---------------------------------------------------------------------------|
B|---------------------------------------------------------------------------| RHYTHM SECTION A+B
G|---------------------------------------------------------------------------|
D|-----------------------------------------------6-6--7-7------7-7-----------|
A|--6--6-6--7-6-6-6--7-6-6-6---7-7-7--9-9-9------4-4--5-5-7-7--5-5-----------|
E|--4--4-4--5-4-4-4--5-4-4-4---5-5-5--7-7-7---------------5-5----------------|


e|---------------------------------------------------------------------------|
B|---------------------------------------------------------------------------|
G|---------------------------------------------------------------------------| CHORUS-slower tempo
D|---6--6---7-7-7--6--6---------7-------6--6--7-7-7--6-6---------7-----------|
A|---4--4---4-4-4--4--4------4----------4--4--4-4-4--4-4------4-----4--------|
E|------------------------5---------5----------------------5-----------------|


e|------------------------------------------------------------------------|
B|------------------------------------------------------------------------|
G|---6-6--7-7-----11------------------------------------------------------|INTERLUDE
D|---6-6--7-7-----11---6-6--7-7--11---7-7--4------------------------------|
A|---4-4--5-5-----9----4-4--5-5--9-9--5-5--2------------------------------|
E|---4-4--5-5--/--9----4-4--5-5--9-9--5-5--2------------------------------|


  AFTER INTERLUDE REPEAT HARMONY FIGURE!

e|---------------------------------------------------------------------------|
B|---------------------------------------------------------------------------|
G|---------------------------------------------------------------------------|BRIDGE
D|-------------------------------------6-6-------6-7-7-7--6-7-7-7-7----------|
A|-----------4-4-------4-5----6-6-6-6--4-4--6-5--4-5-5-5--4-5-5-5-5----------|
E|--4-4-4-4-------4-3---------4-4-4-4-------4-3------------------------------|


    AFTER BRIDGE PLAY: INTRO+VERSE
                       HARMONY FIGURE


e|---------------------------------------------------------------------------|
B|---------------------------------------------------------------------------|
G|-----------6---4------------------6---7--4---------------------------------| END FILL!
D|-------6-----------7-----------6-------------6-----------------------------|
A|---4-----------------------4-----------------4-----------------------------|
E|---------------------------------------------------------------------------|
            
Submit corrections

↑ Back to top | Tablatures and chords for acoustic guitar and electric guitar, ukulele, drums are parodies/interpretations of the original songs. You may use it for private study, scholarship, research or language learning purposes only