Home » M » Marcus Miller »

Marcus Miller - Scoop Bass

Artists:  A B C D E F G H I J K L M N O P Q R S T U V W X Y Z # 

Scoop Bass

(ver. 1) Click to play this song!
Marcus Miller
 Rating:
4.5/5 (8 votes)
                (Live)
-----------------------------------------------------------------------------
			     SONG NAME Scoop- Band Name: Marcus Miller
-----------------------------------------------------------------------------


Tuning:EADG
```````````````t``````````````````````````````h``````````````````````````````
G|-------7-----6-4-6-4-6--------------4-------2-4-2-4-----9-------7-----6---|
D|-------5-----4---------7------------2-----0---------------------5-----4---|
A|-------------------------X-7\---------0-2---------------------------------|
E|-0-X-X---0-X------------------0-X-X-----------------0-X---0-X-X---0-X-----|
```T`T`T`M`T`T```````````T`T`T``T`T`T`M`T`T`T`M```````T`T`M`T`T`T`M`T`T`M````
`````````I`````I``````````````````````I```````````````````````````I`````I````


```t````````````````````````````````````````````````````````````t
G|-4-6-4-6--------------4-------------9------12-9-------7-----6-4-6-4-6-----|
D|---------7------------2-----0-10/12---X-12------------5-----4---------7---|
A|-----------X-7\---------0-2---------------------------------------------X-|
E|----------------0-X-X---------------------------0-X-X---0-X---------------|
``M```````T```T``T`T`T`T`M`T`T`T`T`````M`T`T``M``M`T`T`T`M`T`M`M`M`````T`T``
`````````````````````````I```````````````````````````````I`````I``````````````


```````````````````````````````````h````t````````````````````#```````````````
G|------------------12/16-12-------9-11-9-10-9-10-9-10-9-----9--------9----9|
D|-------------------------------------------------------------9-11-9---11--|
A|7\------------------------------------------------------------------------|
E|---0-1/19\1-0-X-X----------0-X-X-----------------------0-X----------------|
``T``T```T````T`T`T`M``````M`T`T`T`M````M````````````````T`T`M`T`T``T`M``T`M`

```h````````h`````h``LR``````LR````````````h`````````````````````````````````
G|11-13----11-13-13-14-------13----9-9-11-11-12-11-9----------11-------12/16|
D|------14-------------------------------------------10-12-12---------------|
A|---------------------14-14----14------------------------------------------|
E|---------------------------------------------------------------0-X-X------|
``M`````T``M`````M``````T``T``M``T`T`M``T`M````````M``T``T``T``M`T`T`T``M````

``````````````````````````````````h````````h`````h``LR```````LR````````h````
G|12-------9/11-12-----9-h------9-11-13----11-13-13-14-------13-9-9-11-11-12|
D|-----------------------9-11-9---------14----------------------------------|
A|-----------------------------------------------------14-14----------------|
E|---0-X-X---------0-X------------------------------------------------------|
```M`T`T`T`M`````M`T`T`M`T````T`M`M`````M``M`````M``````T``T``M`T`M`T``M`````

```````````````````````````````````Back to start
|9-----------h--------------------:-------7--------------------------------|
|--9-10-9-\7-5-7-5-4---h---5-\4---:-------5--------------------------------|
|--------------------X-5-7------7\:----------------------------------------|
|---------------------------------:0-X-X-----------------------------------|
`M`T```````T`T`````T`T`T```T````T``T`T`T``M`````````````````````````````````
``````````````````````````````````````````I

| LR Let Ring
| /  slide up
| \  slide down
| h  hammer-on
| p  pull-off
| ~  vibrato
| +  harmonic
| x  Mute note
| T  Thumb
| M  Middle finger
| I  Index finger
| t  trill
| #  see notes below
===============================================================================
Notes on techniques for novices. Generally, try to use the middle finger of you RH for 
on G-string
& Index finger for pops on D-string. # Try to hold down (i.e. stop) both the D & G-strings
on the 9th fret with your index finger: this will allow you to play the phrase
faster (The Marcus Miller song Power uses this technique with all of the strings
being barred at the 7th fret position). Note the use of slides between notes which
adds to the fluidity of the piece.
Learn the bass line slowly at first to ensure proper technique before speeding up.
            
Submit corrections

↑ Back to top | Tablatures and chords for acoustic guitar and electric guitar, ukulele, drums are parodies/interpretations of the original songs. You may use it for private study, scholarship, research or language learning purposes only