» » »

Marcus Miller - Pluck Bass

Artists:  A B C D E F G H I J K L M N O P Q R S T U V W X Y Z # 

Pluck Bass

(ver. 1) Click to play this song!
Marcus Miller
 Rating:
4/5 (4 votes)

 Pluck lessons Tabs too difficult? Try these video lessons and learn fast
 
                (Interlude)
Ok, so nobody had a tab for this which bugged me, so i listened by ear and this is what 
i got. its pretty accurate so if you see something wrong please comment


S=Slap
P=Pop/Pull
N=Normal
p=Pull off
h=Hammer on

G|-----------------------------------|---------------------|
D|--12p10p0--------------------------|---------------------|
A|--------------------------8-8------|---------------------|
E|-----------10-x-x-x--8h10-----x-x-x|---------------------|
    P        S  S S S  S    S S S S S

G|-----------------------------------|---------------------|
D|--12p10p0--------------------------|---------------------|
A|--------------------------8-8------|---------------------|
E|-----------10-x-x-x--8-10-----10-10|---------------------|
    P        S  S S S  N  N N N  N  N


this just repeats throughout the song, but around 2:40 he plays the whole thing normal.  
hope this helped
            
Submit corrections


        Pluck lessons Hard to play? Try these video lessons and learn fast Pluck lessons
        
↑ Back to top | Tablatures and chords for acoustic guitar and electric guitar, ukulele, drums are parodies/interpretations of the original songs. You may use it for private study, scholarship, research or language learning purposes only