» » »

Marcus Miller - Burning Down The House Bass

Artists:  A B C D E F G H I J K L M N O P Q R S T U V W X Y Z # 

Burning Down The House Bass

(ver. 1) Click to play this song!
Marcus Miller
 Rating:
4/5 (4 votes)

 Burning Down The House lessons Tabs too difficult? Try these video lessons and learn fast
 
                Riff 1
            (00:30)                                                             
G||--------------------|--------12--12--10--12--13--|--12--10----------------|
D||----------5---------|----------------------------|--------------5---------|
A||--------------------|----------------------------|------------------------|
E||---------------3--3-|----------------------------|-------------------3--3-|


         *   *   *   *   *      *   *        (00:40)                
--------12--12--10--12--13--|--12--10--------10/12---|
----------------------------|------------------------|
----------------------------|------------------------|
----------------------------|------------------------|

	* Play one 8a lower on repeat

                                                                               
--12----12----12----12----|--12----12--------12--12--|--12--10-12-------------|
--------------------------|--------------------------|------------------------|
--------------------------|--------------------------|------------------------|
--------------------------|--------------------------|------------------------|


 Riff 2

        (01:07)                                                                 
G||------3--3--------------|-------------------------|-----------3--3--0--0--|
D||------------5--5--5--5--|--3----3--3--------------|-----------------------|
A||------------------------|-------------5--5--3--3--|--1--------------------|
E||------------------------|-------------------------|-----------------------|


                        
--0--0--0----2--------||
----------------------||
----------------------||
----------------------||

Play: 

Intro ( G + a lot of plucks)
Riff 1 (x2)
Riff 2 (x2)
Riff 1 (x2)
Bass Solo
Riff 2 (x2)
sax Solo (same as Intro)
Riff 2 (x2)
Riff 1 
Bass Solo 2
            
Submit corrections


        Burning Down The House lessons Hard to play? Try these video lessons and learn fast Burning Down The House lessons
        
↑ Back to top | Tablatures and chords for acoustic guitar and electric guitar, ukulele, drums are parodies/interpretations of the original songs. You may use it for private study, scholarship, research or language learning purposes only