Home » M » Marc Cohn »

Marc Cohn - Walking In Memphis Tabs

Artists:  A B C D E F G H I J K L M N O P Q R S T U V W X Y Z # 

Walking In Memphis Tabs

(ver. 2) Click to play this song!
Marc Cohn
Tuning: Standard


Vers x4
e|---------------------------------------------------------------------------|
B|---------------------------------------------------------------------------|
G|-----5--5--4--5--4--5--7-----5--5--4--4--5---------------------------------|
D|---------------------------------------------------------------------------|
A|---------------------------------------------------------------------------|
E|---------------------------------------------------------------------------|
Chorus
e|---------------------------------------------------------------------------|
B|---5-5-5--5-6-5------------5-6-5-------------------------------------------|
G|-----------------7--5------------7-7-5---5-4--4-5--------------------------|
D|---------------------------------------------------------------------------|
E|---------------------------------------------------------------------------|

e|---------------------------------------------------------------------------|
B|---5-6-5------------5-6-5--------------------------------------------------|
G|---------7--5-------------7-7--5-5--4-5h-----------------------------------|
D|---------------------------------------------------------------------------|
A|---------------------------------------------------------------------------|
E|---------------------------------------------------------------------------|
            
Submit corrections

↑ Back to top | Tablatures and chords for acoustic guitar and electric guitar, ukulele, drums are parodies/interpretations of the original songs. You may use it for private study, scholarship, research or language learning purposes only