» » »

Marc Anthony - You Sang To Me Tabs

Artists:  A B C D E F G H I J K L M N O P Q R S T U V W X Y Z # 

You Sang To Me Tabs

(ver. 1) Click to play this song!
Marc Anthony
 Rating:
3.6/5 (5 votes)

 You Sang To Me lessons Tabs too difficult? Try these video lessons and learn fast
 
                
"You Sang To Me" written by Marc Anthony and Cory Rooney
Performed by Marc Anthony on the album "Marc Anthony" released in 1999 =
on Columbia Records

I use a weird tuning on this song.  I have no idea if this is the tuning =
or chord shapes actually
used on the record.  However, this way of playing it allows for a lot of =
ringing open strings,
which sound good.


The chords as written over the tab and lyrics are at concert pitch, not =
relative to the tuning.


Tuning, low to high

Eb Bb D F G Eb

These patterns are pretty much the only guitar parts to the song.
Over the lyrics, when you see "Bb," just play the  Bb arpeggio, and
do the same for all the other chords.


Note on the F section: During the verse and chorus, only play the first =
four beats.
It only appears as written in the intro.


 Bb                                                                      =

---------------------------------------------------------------|
0-----------------------0--0---------0--0-----------0----------|
----0---0---0---0---0-------0----0-------0------0--------------|
-----0-- 0---0---0------------0-------------0------------------|
-------3---3---3---3------------3--------------3---------------|
---------------------------------------------------------------|

Gm
--4-------4--4---------------4----------4---4------------------------|
---------------------------------------------------------------------|
----0----0-----0----0----------0-----0--------0---0------------------|
-----0-----------0----0----------0---------------0---0---------------|
-------3-----------3----3----------3---------------3---3-------------|
---------------------------------------------------------------------|


 Eb
--0---------------------------0---------|
----0----0----0----0------0-------------|
------1----1----1----1------------------|
----------------------------------------|
--------0----0---0------0---------------|
----------------------------------------|


F
2---------------------------2-----------2-----2------|
--2---2---2----2-----2-----2----2--------------------|
-----------------------------------------------------|
------0---0---0---0-- -0-----0----0------------------|
--------2---2---2---2-----------2--------2-----------|
-----------------------------------------------------|

Intro:Bb Gm Eb(2x) F
       Bb Gm Eb F
       Bb (oh-oh) F


Verse:

Bb
I just . . . . . .comfort me
When . . . . . last night you see

         Gm
I was falling. . . . . . love
Yes. . . . . . .crashing into love

         Eb
Oh of all . . . . . . . . . . to me

          F
About life . . . . . . . .being free

              Bb
Yeah. . . sang to me
                   F
Oh . . . . . . . sang to me

(subsequent verses follow the same pattern)

Chorus:

            Bb
All the while . . . . . . . I never realized


         Gm
I just can't believe . . . . . in your eyes


            Eb
. . . . . .see it

           F
. . . . . .believe it

                Bb
. . . . . . . . feel it
                 F
. . . . . . . . .sing to me


(Second half of the chorus follows the same pattern)


I didn't steal this from anywhere :).

### if u dont like this song then dial 420 & SUCK my ASS ###
            
Submit corrections


        You Sang To Me lessons Hard to play? Try these video lessons and learn fast You Sang To Me lessons
        
↑ Back to top | Tablatures and chords for acoustic guitar and electric guitar, ukulele, drums are parodies/interpretations of the original songs. You may use it for private study, scholarship, research or language learning purposes only