» » »

Marah - Pizzeria Bass

Artists:  A B C D E F G H I J K L M N O P Q R S T U V W X Y Z # 

Pizzeria Bass

(ver. 1) Click to play this song!
Marah
 Rating:
4/5 (4 votes)
                G- -----0--------------------------|
D- ---------3-2-0-----3-2-0--------|
A- --------------------------------|
E- 1-3-------------3---------------|

G- -----0--------------------------|
D- ---------3-2-0------------------|
A- --------------------------------|
E- 1-3-------------3------00011----|

Lather, rinse, and repeat to your heart's content!
            
Submit corrections

↑ Back to top | Tablatures and chords for acoustic guitar and electric guitar, ukulele, drums are parodies/interpretations of the original songs. You may use it for private study, scholarship, research or language learning purposes only