» » »

Maps And Atlases - Every Place Is A House Bass

Artists:  A B C D E F G H I J K L M N O P Q R S T U V W X Y Z # 

Every Place Is A House Bass

(ver. 1) Click to play this song!
Maps And Atlases
 Rating:
4.2/5 (5 votes)
                
* = Ring
~ = Slide
^ = Accent


G---------------------------------------------------------|
D----0h3---0h3-----0h3---0h3------------------------------|
A--3-----3-----3-3-----3-----0----------------------------|
E------------------------------0-3-5-5-3-5-5-3-5-5-3-5-5--| x2

G-------|
D--3*---|
A-------|
E-------|

G--7-5------|
D------7----|
A--------8--|
E-----------| x10

G---------------------------------------------------|
D---------------------------------------------------|
A--8-8-8-8-8-8-5-5-5-7-5-7--------------------------|
E--------------------------5-5-5-5-5-5-3-3-3-5-3-5--|

G---------------------------------------------------|
D---------------------------------------------------|
A--8-8-8-8-8-8-5-5-5-7-5-7-------------5-5-5-7-5-7--|
E--------------------------5-5-5-5-5-5--------------|

G---------------------------------------------------------------|
D---------------------------------------------------------------|
A--8-8-8-8-8-8-8-5-5-5-7-7-5-7-----------------------------3-5--|
E------------------------------5-5-5-5-5-5-5-3-3-3-3-5-5-3------|

G--------------------------------------------------------------------|
D--------------------------------------------------------------------|
A--8-8-8-8-8-8-8-8h10-5-5-5-5-7-5-7-----------------------------3-5--|
E-----------------------------------5-5-5-5-5-5-5-3-3-3-3-5-5-3------| x2

G---------------------------------|
D--3---3--------------------------|
A----3---5-3-5-3-----3-----2-3-0--|
E----------------5-3---3-5--------| x3


G------------------------|
D--3---3-----------------|
A----3---5-3-5-3-----3*--|
E----------------5-3-----|

G---------------------------------------------------------|
D----0h3---0h3-----0h3---0h3------------------------------|
A--3-----3-----3-3-----3-----0----------------------------|
E------------------------------0-3-5-5-3-5-5-3-5-5-3-5-5--| x2

G----------------------------------------------------|
D----0h3---0h3-------0-----0-------------------------|
A--3-----3-----3-0h3---0h3----0----------------------|
E-------------------------------3-5-5-5-3-3-5-5-5-3--| x2

*Clapping Part* 2:10

G-----------------------|
D--3-3------------------|
A------3-3-5-5----------|
E--------------3-3-3~5--| x4

G-----------------------|
D--3-3------------------|
A------5-5--------------|
E----------3-3-5-5-3~5--|

G---------------------|
D--3-3----------------|
A------5-5------------|
E----------3-3-5-5~8--|

G---------------------------------------------------|
D---------------------------------------------------|
A--8-8-8-8-8-8-5-5-5-7-5-7--------------------------|
E--------------------------5-5-5-5-5-5-3-3-3-5-3-5--|

G---------------------------------------------------|
D---------------------------------------------------|
A--8-8-8-8-8-8-5-5-5-7-5-7-------------5-5-5-7-5-7--|
E--------------------------5-5-5-5-5-5--------------|

G---------------------------------------------------------------|
D---------------------------------------------------------------|
A--8-8-8-8-8-8-8-5-5-5-7-7-5-7-----------------------------3-5--|
E------------------------------5-5-5-5-5-5-5-3-3-3-3-5-5-3------|

G--------------------------------------------------------------------|
D--------------------------------------------------------------------|
A--8-8-8-8-8-8-8-8h10-5-5-5-5-7-5-7-----------------------------3-5--|
E-----------------------------------5-5-5-5-5-5-5-3-3-3-3-5-5-3------|

G----------------------------------------------------------------|
D----------------------------------------------------------------|
A--8-8-8-8-8-8-8-8h10-5-5-5-5-7-5-7------------------------------|
E-----------------------------------5-5-5-5-5-5-5-3-3-3-3-3-5-5--|

G--^--
D--3--
A-----
E-----

G-------------------------------------------------------------------|
D--3-3-3-3-3-3-3-3--------------------------------------------------|
A------------------3-3-3-5-5-5-5-5----------------------------------|
E----------------------------------5-5-5-5-5-5-5-5-3-3-3-3-3-3-5-5--| x2

G-------------------------------------------------------------------|
D--3-3-3-3-3-3-3-3--------------------------------------------------|
A------------------3-3-3-5-5-5-5-5----------------------------------|
E----------------------------------5-5-5-5-5-5-5-5-3-3-3-3-3-3-5-5--| x2
Note: The notes for the last two lines are the same, but the rhythm is different,

so you'll need to listen to the album to find the difference.


That's it!  To play this song well, you'll need to listen to the recording a lot when
first start to play it.  Don't be discouraged if you can't play as fast as the bass does
the recording- this song, like most Maps and Atlases songs, takes tons of practice to be 
to do it right.
            
Submit corrections

↑ Back to top | Tablatures and chords for acoustic guitar and electric guitar, ukulele, drums are parodies/interpretations of the original songs. You may use it for private study, scholarship, research or language learning purposes only