Home » M » Manu Chao »

Manu Chao - Clandestino Bass

Artists:  A B C D E F G H I J K L M N O P Q R S T U V W X Y Z # 

Clandestino Bass

(ver. 2) Click to play this song!
Manu Chao
Intro :

G |----------------|----------------|
D |--4-----4-------|--4-----4-------|
A |-----4-----4----|-----4-----4----|
E |----------------|----------------|


Verses : 

G |----------------|----------------|----------------|--6-----------6--4--2--1--|
D |--4-----4-------|--4-----4-------|----------------|--------6-----------------|  
A |-----4-----4----|-----4-----4----|--2-----2-------|--------------------------|
E |----------------|----------------|-----2-----2----|--------------------------|     x2



Chorus :

G |-----------------11---------|
D |--------------------11------|
A |-----9--9--9----------------|
E |----------------------------|  x4

G |----------------------------|
D |--------------11------------|
A |--9--9--9-----------9-------|
E |----------------------------| x2

Verses 4 : 

G |----------------|----------------|----------------|--6-----------6--4--2--1--|
D |--------4-------|--4-----4-------|----------------|--------6-----------------|  
A |-4-4-4-----4----|-----4-----4----|--2-----2-------|--------------------------|
E |----------------|----------------|-----2-----2----|--------------------------|     x2


Outro :


G |----------------------------|
D |--------------11------------|
A |--9--9--9-----------9-------|
E |----------------------------| x5
            
Submit corrections

↑ Back to top | Tablatures and chords for acoustic guitar and electric guitar, ukulele, drums are parodies/interpretations of the original songs. You may use it for private study, scholarship, research or language learning purposes only