» » »

Mansions - Two Suits Tabs

Artists:  A B C D E F G H I J K L M N O P Q R S T U V W X Y Z # 

Two Suits Tabs

(ver. 1) Click to play this song!
Mansions
 Rating:
4.4/5 (5 votes)

 Two Suits lessons Tabs too difficult? Try these video lessons and learn fast
 
                [Intro]

e|--------|
B|--------|
G|--4~----|
D|--2~----|
A|--2~----|
D|--2~----| 
                                                                    Last measure
e|----------------------------------------------------------------|------------|
B|----------------------------------------------------------------|------------|
G|----------------------------------------------------------------|------------|
D|-----0-------0-------0-------0-------0-------0-------0-------0--|------------|
A|-7-7---5-5-5---5-5-5---5-5-5---5-7-7---5-5-5---5-5-5---5-5-5----|-5-4-4-4-4--|
D|----------------------------------------------------------------|------------|


e|------------------------------|
B|------------------------------|
G|-9~--7~-6~-5~---9~--7~-6~-5~--|
D|-9~--7~-6~-5~---9~--7~-6~-5~--|
A|-7~--5~-4~-3~---7~--5~-4~-3~--|
D|------------------------------|


 Guitar 1 returns to intro riff                                                                     
e|----------------------------------------------------------------|-Ends-on-|
B|----------------------------------------------------------------|---------|
G|----------------------------------------------------------------|---------|
D|-----0-------0-------0-------0-------0-------0-------0-------0--|---------|
A|-7-7---5-5-5---5-5-5---5-5-5---5-7-7---5-5-5---5-5-5---5-5-5----|-5-4-4-4-|
D|----------------------------------------------------------------|---------|


 Guitar 2 comes in on second measure of intro riff
e|--------------------|-Ends-on-|
B|--------------------|---------|
G|-999/7777777777777--|-7/6666--|
D|-999/7777777777777--|-7/6666--|
A|-777/5555555555555--|-5/4444--|
D|--------------------|---------|


[Chorus]
e|------------------------------------------|
B|------------------------------------------|
G|----------77777777-66666666-55555555------|
D|-22222222-77777777-66666666-55555555--x2--|
A|-22222222-55555555-44444444-33333333------|
D|-22222222---------------------------------|


 Solo/Lead transition
e|--------------------------------------------------------------------------------------------------|
B|---------------------------------------------------------171717-151515-141414-131313-13b-13b-12~--|
G|------------------9-7-14/-14/-14/16-12b~--9-7-6-5-5/4-44------------------------------------------|
D|-7777777777777777-x-x--x/---x--x--x--x----x-x-x-x-x/x-xx------------------------------------------|
A|-7777777777777777-7-5-12/-12/-12/14-10b~--7-5-4-3-3/2-22------------------------------------------|
E|-7777777777777777---------------------------------------------------------------------------------|
                                           ^(small pause full of random muted/open strings)

 Outro is intro riff repeated backed mostly by bass and possibly like strumming of matching chords
e|----------------------------------------------------------------|
B|----------------------------------------------------------------|
G|----------------------------------------------------------------|
D|-----0-------0-------0-------0-------0-------0-------0-------0--|
A|-7-7---5-5-5---5-5-5---5-5-5---5-7-7---5-5-5---5-5-5---5-5-5----|
D|----------------------------------------------------------------|

            
Submit corrections


        Two Suits lessons Hard to play? Try these video lessons and learn fast Two Suits lessons
        
↑ Back to top | Tablatures and chords for acoustic guitar and electric guitar, ukulele, drums are parodies/interpretations of the original songs. You may use it for private study, scholarship, research or language learning purposes only