» » »

Mansions - Climbers Tabs

Artists:  A B C D E F G H I J K L M N O P Q R S T U V W X Y Z # 

Climbers Tabs

(ver. 1) Click to play this song!
Mansions
 Rating:
4.1/5 (31 vote)

 Climbers lessons Tabs too difficult? Try these video lessons and learn fast
 
                [Intro]
e|-----------------------------------------------------------------------|
B|-----------------------------------------------------------------------|
G|-55555-4----------55555-4-----------55555-4----------55555-4-------777-|
D|-55555-4-22222222-55555-4-22222-555-55555-4-22222222-55555-4-22222-777-|
A|-33333-2-22222222-33333-2-22222-555-33333-2-22222222-33333-2-22222-555-|
D|---------22222222---------22222-555---------22222222---------22222-----|

[Verse 1]                                                                      Ends on
e|--------------------------------------------------------------------------|----------------|
B|--------------------------------------------------------------------------|----------------|
G|--------------------------------------------------------------------------|--------------7-|
D|-----------------------------------------------------------------------x2-|--------------7-|
A|-33333-2----------33333-2-----------33333-2----------33333-2-------555----|-33333-2------5-|
D|---------22222222---------22222-555---------22222222---------22222--------|---------2222---|

[Chorus]
e|-----------------------------------------|--end-on-------------|
B|-----------------------------------------|---------------------|
G|-55555555----------77777777-------777----|-55555555-777777-7-7-|
D|-55555555-55555555-77777777-22222-777-x2-|-55555555-777777-7-7-|
A|-33333333-55555555-55555555-22222-555----|-33333333-555555-5-5-|
D|----------55555555----------22222--------|---------------------|

[Verse 2]
e|--------------------------------------------------------------------------------------|
B|--------------------------------------------------------------------------------------|
G|-55555-4----------55555-4-------777---------------------------------------------------|
D|-55555-4-22222222-55555-4-22222-777---------------------------------------------------|
A|-33333-2-22222222-33333-2-22222-555-7~-5-10~--7~-5-10~-9--7~-5-10~--7~-5-10~-12-12-12-|
D|---------22222222---------22222-------------------------------------------------------|

[Verse 1]
e|-------------------------------------------------------------------------------------------|
B|-------------------------------------------------------------------------------------------|
G|---------------------------------------------------------------------------------------777-|
D|---------------------------------------------------------------------------------------777-|
A|---------------------------------------------------------------------------------------555-|
D|-1010101010-9-22222222-1010101010-9-22222-555-1010101010-9-22222222-1010101010-9-22222-----|

[Chorus]
e|-----------------------------------------|--end-on-----------|
B|-----------------------------------------|-------------------|
G|-55555555----------77777777-------777----|-55555555-77777777-|
D|-55555555-55555555-77777777-22222-777-x2-|-55555555-77777777-|
A|-33333333-55555555-55555555-22222-555----|-33333333-55555555-|
D|----------55555555----------22222--------|-------------------|

[Outro lead]
e|-------------------------------------10-------------------------------------------|
B|-------------12-------------12----------------------12-------------12-------------|
G|-10/12/11-------10/12/11-------10h12----10/12/11-------10/12/11-------10-12-12-12-|
D|----------12-------------12----------------------12-------------12----------------|
A|----------------------------------------------------------------------------------|
D|----------------------------------------------------------------------------------|

[Outro Rhythm]
e|------------------------------------|
B|------------------------------------|
G|-5555555555555555-7777777777777777--|
D|-5555555555555555-7777777777777777--|
A|-3333333333333333-5555555555555555--|
D|------------------------------------|


Rhythm ends on - Lead ends on
e|-------------|-------------|
B|-------------|--12~--------|
G|-5~----------|-------------|
D|-5~----------|-------------|
A|-3~----------|-------------|
D|-------------|-------------|


            
Submit corrections


        Climbers lessons Hard to play? Try these video lessons and learn fast Climbers lessons
        
↑ Back to top | Tablatures and chords for acoustic guitar and electric guitar, ukulele, drums are parodies/interpretations of the original songs. You may use it for private study, scholarship, research or language learning purposes only