» » »

Manowar - Warriors Of The World United Tabs

Artists:  A B C D E F G H I J K L M N O P Q R S T U V W X Y Z # 

Warriors Of The World United Tabs

(ver. 2) Click to play this song!
Manowar
 Rating:
4/5 (4 votes)

 Warriors Of The World United lessons Tabs too difficult? Try these video lessons and learn fast
 
                
WARRIORS OF THE WORLD UNITED
As recorded by MANOWAR
(From the 2002 Album WARRIORS OF THE WORLD)

	

Words and Music by Joey DeMaio
Arranged by Manowar

A6sus4
x x x 2 3 2
	
B+sus4
x x x 4 5 3
	
G#+sus4
x x x 1 2 0
	
C#+sus4
x x x 6 7 5

D6sus4
x x x 7 8 7
	
C6sus4
x x x 5 6 5
	
E+sus4
x x x 9 10 8
	
E6sus4
x x x 9 10 9

Gtr I (D G C F A D) - 'Rhythm Guitar'
Gtr II (D G C F A D) - 'Acoustic Guitar'

 Intro
  Slow Rock Q=85
 4/4
  Gtr I
  Wx4
|--------|
|--------|
|--------|
|--------|
|--------|
|--------|


  E5                                   C5
  W          +W           +W           W
|----------|------------|------------|------|
|----------|------------|------------|------|
|----------|------------|------------|------|
|-2--------|-(2)--------|-(2)--------|-5----|
|-2--------|-(2)--------|-(2)--------|-3----|
|-0--------|-(0)--------|-(0)--------|------|


               E5
  +W           W          +W
|------------|----------|--------|
|------------|----------|--------|
|------------|----------|--------|
|-(5)--------|-2--------|-(2)----|
|-(3)--------|-2--------|-(2)----|
|------------|-0--------|-(0)----|


    PM----------------------|
  E S S S S S S E S S S S S S
|-----------------------------|
|-----------------------------|
|-----------------------------|
|-----------------------------|
|-2---------------------------|
|-0-0-0-0-0-0-0-0-0-0-0-0-0-0-|


    PM----------------------------------------------|
  E S S S S S S E S S E S S   E S S E S S E S S E S S
|---------------------------|-------------------------|
|---------------------------|-------------------------|
|---------------------------|-------------------------|
|---------------------------|-------------------------|
|-2-------------------------|-------------------------|
|-0-0-0-0-0-0-0-0-0-0-0-0-0-|-0-0-0-0-0-0-0-0-0-0-0-0-|


  C5         G5 E5                         G
                                            ~~~
  W           E H.      +E    +W            W
|----------|----------------|------------|--------|
|----------|----------------|------------|-20\----|
|----------|----------------|------------|--------|
|-5--------|-12-9-------(9)-|-(9)--------|--------|
|-3--------|-10-7-------(7)-|-(7)--------|--------|
|----------|----------------|------------|--------|


  E5         C5
                               PM--------------------|
  W          H.      +E  S S   E S S E S S E S S E S S
|----------|-----------------|--------------------------|
|----------|-----------------|--------------------------|
|----------|-----------------|--------------------------|
|-2--------|-5-------(5)-----|--------------------------|
|-2--------|-3-------(3)-3-3-|-3-3-3-3-3-3-3-3-3-3-3-3--|
|-0--------|-----------------|--------------------------|


  G5 E5                         G5           E5             G5
   E H.      +E    +H.      +E   S  S      S S S S H    +E   S  S
|----------------|--------------------||--------------------------|
|----------------|--------------------||o-------------------------|
|----------------|--------------------||--------------------------|
|-12-9-------(9)-|-(9)------(9)-12-12-||--12S9-----9----(9)-12-12-|
|-10-7-------(7)-|-(7)------(7)-10-10-||o-10S7-7-7-7----(7)-10-10-|
|----------------|--------------------||--------------------------|


                                 1.
     D5              C5   G5 F#5  E5          G5
   S S S S H.        H    Q  Q    H.      +E   S  S
|------------------|------------|--------------------||
|------------------|------------|-------------------o||
|------------------|------------|--------------------||
|-12-7-----7-------|-5----------|-------------12-12--||
|-10-5-5-5-5-------|-3----5--4--|-2-------(2)-10-10-o||
|------------------|------3--2--|-0-------(0)--------||


  2.
  E5
    PM----------------------------------------------|
  E S S S S S S E S S E S S   E S S E S S E S S E S S
|---------------------------|-------------------------|
|---------------------------|-------------------------|
|---------------------------|-------------------------|
|---------------------------|-------------------------|
|-2-------------------------|-------------------------|
|-0-0-0-0-0-0-0-0-0-0-0-0-0-|-0-0-0-0-0-0-0-0-0-0-0-0-|


               Verse
  Wx2           Wx7
|------------||--------|
|------------||--------|
|------------||--------|
|------------||--------|
|------------||--------|
|------------||--------|


                $
          C5D5  E5
  H.      E E   E S S E S S E S S E S S   E S S E S S E S S E S S
|-------------|-------------------------|--------------------------|
|-------------|-------------------------|--------------------------|
|-------------|-------------------------|--------------------------|
|---------5-7-|-9-----------------------|--------------------------|
|---------3-5-|-7-2-2-2-2-2-2-2-2-2-2-2-|-2-2-2-2-2-2-2-2-2-2-2-2--|
|-------------|---0-0-0-0-0-0-0-0-0-0-0-|-0-0-0-0-0-0-0-0-0-0-0-0--|


  C5                                                  E5
  E S S E S S E S S E S S   E S S E S S E S S E S S   E S S E S S E S S E S S
|-------------------------|-------------------------|--------------------------|
|-------------------------|-------------------------|--------------------------|
|-------------------------|-------------------------|--------------------------|
|-5-5-5-5-5-5-5-5-5-5-5-5-|-5-5-5-5-5-5-5-5-5-5-5-5-|--------------------------|
|-3-3-3-3-3-3-3-3-3-3-3-3-|-3-3-3-3-3-3-3-3-3-3-3-3-|-2-2-2-2-2-2-2-2-2-2-2-2--|
|-------------------------|-------------------------|-0-0-0-0-0-0-0-0-0-0-0-0--|


                            C5
  E S S E S S E S S E S S   E S S E S S E S S E S S
|-------------------------|-------------------------|
|-------------------------|-------------------------|
|-------------------------|-------------------------|
|-------------------------|-5-5-5-5-5-5-5-5-5-5-5-5-|
|-2-2-2-2-2-2-2-2-2-2-2-2-|-3-3-3-3-3-3-3-3-3-3-3-3-|
|-0-0-0-0-0-0-0-0-0-0-0-0-|-------------------------|


  E S S E S S E S S E  S  S
|----------------------------||
|----------------------------||
|----------------------------||
|-5-5-5-5-5-5-5-5-5-5-12-12--||
|-3-3-3-3-3-3-3-3-3-3-10-10--||
|----------------------------||


   Chorus
    G5 E5             G5         D5
     S S S S H    +E   S  S    S S S S H.
||--------------------------|------------------|
||o-------------------------|------------------|
||--------------------------|------------------|
||--12S9-----9----(9)-12-12-|-12-7-----7-------|
||o-10S7-7-7-7----(7)-10-10-|-10-5-5-5-5-------|
||--------------------------|------------------|
     W                         W


              1.
     To Coda
  C5   G5 F#5  E5             G5
                    ~~~
  H    Q  Q    H.         +E   S  S
|------------|-----[7]-----------------||
|------------|------------------------o||
|------------|-------------------------||
|-5----------|----------------12-12----||
|-3----5--4--|-2----------(2)-10-10---o||
|------3--2--|-0----------(0)----------||
  W            Q    H.


             Verse
  2.
  E5
  W           E S S E S S E S S E S S   E S S E S S E S S E S S
|----------||-------------------------|--------------------------|
|----------||-------------------------|--------------------------|
|----------||-------------------------|--------------------------|
|----------||-------------------------|--------------------------|
|-2--------||-2-2-2-2-2-2-2-2-2-2-2-2-|-2-2-2-2-2-2-2-2-2-2-2-2--|
|-0--------||-0-0-0-0-0-0-0-0-0-0-0-0-|-0-0-0-0-0-0-0-0-0-0-0-0--|


  C5                                                  E5
  E S S E S S E S S E S S   E S S E S S E S S E S S   E S S E S S E S S E S S
|-------------------------|-------------------------|--------------------------|
|-------------------------|-------------------------|--------------------------|
|-------------------------|-------------------------|--------------------------|
|-5-5-5-5-5-5-5-5-5-5-5-5-|-5-5-5-5-5-5-5-5-5-5-5-5-|--------------------------|
|-3-3-3-3-3-3-3-3-3-3-3-3-|-3-3-3-3-3-3-3-3-3-3-3-3-|-2-2-2-2-2-2-2-2-2-2-2-2--|
|-------------------------|-------------------------|-0-0-0-0-0-0-0-0-0-0-0-0--|


                                                              D.S. al Coda
                            C5
  E S S E S S E S S E S S   E S S E S S E S S E S S   E S S E S S E S S E E
|-------------------------|-------------------------|-----------------------|
|-------------------------|-------------------------|-----------------------|
|-------------------------|-------------------------|-----------------------|
|-------------------------|-5-5-5-5-5-5-5-5-5-5-5-5-|-5-5-5-5-5-5-5-5-5-5-7-|
|-2-2-2-2-2-2-2-2-2-2-2-2-|-3-3-3-3-3-3-3-3-3-3-3-3-|-3-3-3-3-3-3-3-3-3-3-5-|
|-0-0-0-0-0-0-0-0-0-0-0-0-|-------------------------|-----------------------|


  &
  E5
  W          +W
|----------|---------|
|----------|---------|
|----------|---------|
|----------|---------|
|-2--------|-(2)\----|
|-0--------|-(0)\----|


 Interlude
  A6sus4     B+sus4     A6sus4     G#+sus4
  Gtr II
  W          W          W          W
|-2--------|-3--------|-2--------|-0--------|
|-3--------|-5--------|-3--------|-2--------|
|-2--------|-4--------|-2--------|-1--------|
|----------|----------|----------|----------|
|----------|----------|----------|----------|
|----------|----------|----------|----------|


  B+sus4     G#+sus4    A6sus4     C#+sus4
  W          W          W          W
|-3--------|-0--------|-2--------|-5----|
|-5--------|-2--------|-3--------|-7----|
|-4--------|-1--------|-2--------|-6----|
|----------|----------|----------|------|
|----------|----------|----------|------|
|----------|----------|----------|------|


  B+sus4     D6sus4     A6sus4     B+sus4     C6sus4
  W          W          W          W          W
|-3--------|-7--------|-2--------|-3--------|-5--------|
|-5--------|-8--------|-3--------|-5--------|-6--------|
|-4--------|-7--------|-2--------|-4--------|-5--------|
|----------|----------|----------|----------|----------|
|----------|----------|----------|----------|----------|
|----------|----------|----------|----------|----------|


  E+sus4      A6sus4     E6sus4     G5
                                    Gtr I
   W          W           W
|--8--------|-2--------|--9------------------||
|-10--------|-3--------|-10------------------||
|--9--------|-2--------|--9------------------||
|-----------|----------|------------12-12----||
|-----------|----------|------------10-10----||
|-----------|----------|---------------------||
                          H.      E  S  S


 Out-Chorus
  G5 E5             G5         D5              C5   G5 F#5  E5          G5
   S S S S H    +E   S  S    S S S S H.        H    Q  Q    H.      +E   S  S
|-------------------------|------------------|------------|-------------------|
|-------------------------|------------------|------------|-------------------|
|-------------------------|------------------|------------|-------------------|
|-12S9-----9----(9)-12-12-|-12-7-----7-------|-5----------|-------------12-12-|
|-10S7-7-7-7----(7)-10-10-|-10-5-5-5-5-------|-3----5--4--|-2-------(2)-10-10-|
|-------------------------|------------------|------3--2--|-0-------(0)-------|


    G5 E5                  G5         D5
     S S S S E S S E S S E  S  S    S S S S E S S E S S E S S
||-------------------------------|----------------------------|
||o------------------------------|----------------------------|
||-------------------------------|----------------------------|
||--12S9-----9-------------12-12-|-12-7-----7-----------------|
||o-10S7-7-7-7-7-7-7-7-7-7-10-10-|-10-5-5-5-5-5-5-5-5-5-5-5-5-|
||-------------------------------|----------------------------|


                     1.,2.,3.,4.,5.        6.
  C5          G5 F#5  E5          G5        E5
  E S S E S S Q  Q    H.      +E   S  S  6x W
|-------------------|--------------------||------*|
|-------------------|-------------------o||------*|
|-------------------|--------------------||------*|
|-5-----------------|-------------12-12--||------*|
|-3-3-3-3-3-3-5--4--|-2-------(2)-10-10-o||-2----*|
|-------------3--2--|-0-------(0)--------||-0----*|



Duration Legend
---------------
W - whole; H - half; Q - quarter; E - 8th; S - 16th; T - 32nd; X - 64th; a - acciaccatura
+ - note tied to previous; . - note dotted; .. - note double dotted
Uncapitalized letters represent notes that are staccato (1/2 duration)
Irregular groupings are notated above the duration line
Duration letters will always appear directly above the note/fret number it represents the
duration for.  Duration letters with no fret number below them represent rests.  Multi-
bar rests are notated in the form Wxn, where n is the number of bars to rest for.  Low
melody durations appear below the staff

Tablature Legend
----------------
 h   - hammer-on
 p   - pull-off
 b   - bend
 pb  - pre-bend
 r   - bend release (if no number after the r, then release immediately)
 /\  - slide into or out of (from/to "nowhere")
 s   - legato slide
 S   - shift slide
 - natural harmonic
[n]  - artificial harmonic
n(n) - tapped harmonic
 ~   - vibrato
 tr  - trill
 T   - tap
 TP  - trem. picking
 PM  - palm muting
\n/  - tremolo bar dip; n = amount to dip
 \n  - tremolo bar down
 n/  - tremolo bar up
/n\  - tremolo bar inverted dip
 =   - hold bend; also acts as connecting device for hammers/pulls
 <> - volume swell (louder/softer)
 x   - on rhythm slash represents muted slash
 o   - on rhythm slash represents single note slash

Misc Legend
-----------
 |  - bar
||  - double bar
||o - repeat start
o|| - repeat end
*|  - double bar (ending)
 :  - bar (freetime)
 $  - Segno
 &  - Coda
Tempo markers -  = BPM(8/16=s8/s16), where s8 = swing 8ths, s16 = swing 16ths
            
Submit corrections


        Warriors Of The World United lessons Hard to play? Try these video lessons and learn fast Warriors Of The World United lessons
        
↑ Back to top | Tablatures and chords for acoustic guitar and electric guitar, ukulele, drums are parodies/interpretations of the original songs. You may use it for private study, scholarship, research or language learning purposes only