Home » M » Manowar »

Manowar - Kings Of Metal Bass

Artists:  A B C D E F G H I J K L M N O P Q R S T U V W X Y Z # 

Kings Of Metal Bass

(ver. 1) Click to play this song!
Manowar
 Rating:
4/5 (4 votes)
                Hi!

Thats my third Tablature. That´s time I choosed Kings of Metal from the "Kings of Metal" album!
It´s a cool, not difficult song, for everybody! Enjoy it!

Tuning: EADG
Play with Pic


Verse 1: 

G|-------------------------------------------------------------------------|
D|-------------------------------------------------------------------------|
A|-15~~~~~~~~~~~~~~~~7-7-7-7-7-7-7-7-7-7-7-7-10--5-------------------------|
E|---------------------0---------------------------------------------------|

Manowar, Manowar, living on the road...

G|-------------------------------------------------------------------------|
D|-------------------------------------------------------------------------|
A|-7-7-7-7-7-7-7-7-7-7-7-7-7-7-7-9-9-10-10-12-5-5-5-7-----7----------------|
E|-------------------------------------------------------------------------|

G|-------------------------------------------------------------------------|
D|-------------------------------------------------------------------------|
A|-7-7-7-7-7-7-7-7-7-7-7-7-7-7-7-9-9-10-10-12-5-5-5-7-----7----------------|
E|-------------------------------------------------------------------------|

G|-------------------------------------------------------------------------|
D|-------------------------------------------------------------------------|
A|-12-12-12-12-12-12-12-12-12-12-12-12-1312-12-12-1312-12-12-1312-17~~~7---|
E|-------------------------------------------------------------------------|

G|-------------------------------------------------------------------------|
D|-------------------------------------------------------------------------|
A|-7-7-7-7-7-7-7-7-7-7-7-7-7-7-7-9-9-10-10-12-5-5-5-7-----7----------------|
E|-------------------------------------------------------------------------|

Refrain: They wanna keep us down...

G|-------------------------------------------------------------------------|
D|-------------------------------------------------------------------------|
A|-7-7-7-7-7-7-7-7-7-7-7-10-10-10-10-10-10-10-10-12-12-12-12-12-12-12-12---|
E|-------------------------------------------------------------------------|

G|-------------------------------------------------------------------------|
D|-------------------------------------------------------------------------|
A|-7-7-7-7-7-7-7-7-7-7-7-7-17~~~~~7----------------------------------------|
E|------------------------------------------------------------------------| 2x

Verse 2: 
G|-------------------------------------------------------------------------|
D|-------------------------------------------------------------------------|
A|-15~~~~~~~~~~~~~~~~7-7-7-7-7-7-7-7-7-7-7-7-10--5-------------------------|
E|---------------------0---------------------------------------------------|

We like it hard, we like it fast...

G|-------------------------------------------------------------------------|
D|-------------------------------------------------------------------------|
A|-7-7-7-7-7-7-7-7-7-7-7-7-7-7-7-9-9-10-10-12-5-5-5-7-----7----------------|
E|-------------------------------------------------------------------------|

G|-------------------------------------------------------------------------|
D|-------------------------------------------------------------------------|
A|-7-7-7-7-7-7-7-7-7-7-7-7-7-7-7-9-9-10-10-12-5-5-5-7-----7----------------|
E|-------------------------------------------------------------------------|

G|-------------------------------------------------------------------------|
D|-------------------------------------------------------------------------|
A|-12-12-12-12-12-12-12-12-12-12-12-12-1312-12-12-1312-12-12-1312-17~~~7---|
E|-------------------------------------------------------------------------|

G|-------------------------------------------------------------------------|
D|-------------------------------------------------------------------------|
A|-7-7-7-7-7-7-7-7-7-7-7-7-7-7-7-9-9-10-10-12-5-5-5-7-----7----------------|
E|-------------------------------------------------------------------------|

Refrain:

G|-------------------------------------------------------------------------|
D|-------------------------------------------------------------------------|
A|-7-7-7-7-7-7-7-7-7-7-7-10-10-10-10-10-10-10-10-12-12-12-12-12-12-12-12---|
E|-------------------------------------------------------------------------|

G|-------------------------------------------------------------------------|
D|-------------------------------------------------------------------------|
A|-7-7-7-7-7-7-7-7-7-7-7-7-17~~~~~7----------------------------------------|
E|------------------------------------------------------------------------| 2x

Solo:

G|-------------------------------------------------------------------------|
D|-------------------------------------------------------------------------|
A|-12-12-12-12-12-12-12-12-12-12-12-12-12-12-12-7-7-7-7-7-7-7-7-7-7-7-7-7--|
E|-------------------------------------------------------------------------|

G|-------------------------------------------------------------------------|
D|-------------------------------------------------------------------------|
A|-12-12-12-12-12-12-12-12-12-12-12-12-12-12-12-7-7-7-7-7-7-7-7-7-7-7-7-7--|
E|-------------------------------------------------------------------------|

G|-------------------------------------------------------------------------|
D|-------------------------------------------------------------------------|
A|-12-12-12-12-12-12-12-12-12-12-12-7-7-7-8-8-8-9-9-9-10-10-10-11-12-12-13-|
E|-------------------------------------------------------------------------|

G|-------------------------------------------------------------------------|
D|-------------------------------------------------------------------------|
A|-13-13-14-14-14-15-15-15-16-16-16-17~18----------------------------------|
E|-------------------------------------------------------------------------|

Verse 3: We are the Kings of Metal, coming to town... (play it harder!)

G|-------------------------------------------------------------------------|
D|-------------------------------------------------------------------------|
A|-7-7-7-7-7-7-7-7-7-7-7-7-7-7-7-9-9-10-10-12-5-5-5-7-----7----------------|
E|-------------------------------------------------------------------------|

G|-------------------------------------------------------------------------|
D|-------------------------------------------------------------------------|
A|-7-7-7-7-7-7-7-7-7-7-7-7-7-7-7-9-9-10-10-12-5-5-5-7-----7----------------|
E|-------------------------------------------------------------------------|

G|-------------------------------------------------------------------------|
D|-------------------------------------------------------------------------|
A|-12-12-12-12-12-12-12-12-12-12-12-12-1312-12-12-1312-12-12-1312-17~~~7---|
E|-------------------------------------------------------------------------|

G|-------------------------------------------------------------------------|
D|-------------------------------------------------------------------------|
A|-7-7-7-7-7-7-7-7-7-7-7-7-7-7-7-9-9-10-10-12-5-5-5-7-----7----------------|
E|-------------------------------------------------------------------------|

Refrain:

G|-------------------------------------------------------------------------|
D|-------------------------------------------------------------------------|
A|-7-7-7-7-7-7-7-7-7-7-7-10-10-10-10-10-10-10-10-12-12-12-12-12-12-12-12---|
E|-------------------------------------------------------------------------|

G|-------------------------------------------------------------------------|
D|-------------------------------------------------------------------------|
A|-7-7-7-7-7-7-7-7-7-7-7-7-17~~~~~7----------------------------------------|
E|------------------------------------------------------------------------| 

G|-------------------------------------------------------------------------|
D|-------------------------------------------------------------------------|
A|-7-7-7-7-7-7-7-7-7-7-7-10-10-10-10-10-10-10-10-12-12-12-12-12-12-12-12---|
E|-------------------------------------------------------------------------|

G|-------------------------------------------------------------------------|
D|-------------------------------------------------------------------------|
A|-12-12-12-12-12-12-12-12-12-12-12-7-7-7-7-7-7-7-7-7-7-7-7-7--------------|
E|-------------------------------------------------------------------------|

play the last part some times...

ENJOY!
greets


Tablature written by Rodario
Friday, 3rd August 2007
 
            
Submit corrections

↑ Back to top | Tablatures and chords for acoustic guitar and electric guitar, ukulele, drums are parodies/interpretations of the original songs. You may use it for private study, scholarship, research or language learning purposes only