Home » M » Man Overboard »

Man Overboard - World Favorite Bass

Artists:  A B C D E F G H I J K L M N O P Q R S T U V W X Y Z # 

World Favorite Bass

(ver. 1) Click to play this song!
Man Overboard
 Rating:
4/5 (4 votes)
                -----------------------------------------------------------------------------
                        WORLD FAVORITE - MAN OVERBOARD
-----------------------------------------------------------------------------


Tuning: Eb (Half Step Down)

*This is my first tab so if it sucks I'm sorry broski*

VERSE ONE

Gb|----------------------------|---------------------------|
Db|----------------------------|---------------------------|
Ab|---------Guitar Plays-(x3)--|------------77777777-------|
Eb|----------------------------|--55555555-----------------|

Gb|----------------------------|---------------------------|
Db|----------------------------|---------------------------|
Ab|--55-----522-----244--(x3)--|------------77777777-------|
Eb|----------------------------|--55555555-----------------|


PRECHORUS (not too sure about this)

Gb|------------------------------------------------------------------------|
Db|------------------------------------------------------------------------|
Ab|--5---------------------------3/5----------------77777------------------|
Eb|-----------------2------------------------5-----------------------------|
                                                  
CHORUS

Gb|----------------------------|---------------------------|
Db|----------------------------|---------------------------|
Ab|--55555555-55555555---------|---------------------------|
Eb|----------------------------|--55555555-55555555--------|

Gb|----------------------------|---------------------------|
Db|----------------------------|---------------------------|
Ab|--55555555-55555555---------|---------------------------|
Eb|----------------------------|--22222222-00000000--------|
   
Gb|----------------------------|---------------------------|\
Db|----------------------------|---------------------------| \
Ab|--555---555---555---555-----|---------------------------| / x2
Eb|----------------------------|--222---222---222---x5-----|/

VERSE TWO

After a measure of guitar

  Play first measure twice the first time through 
Gb|----------------------------|---------------------------|
Db|----------------------------|---------------------------|
Ab|--55-----522-----244--(x3)--|------------77777777-------|
Eb|----------------------------|--55555555-----------------| x2

PRECHORUS

Gb|----------------------------|---------------------------|
Db|----------------------------|---------------------------|
Ab|---5-55555555555555---------|---------------------------|
Eb|----------------------------|---2-22222222222222--------|
     
Gb|----------------------------|---------------------------|
Db|----------------------------|---------------------------|
Ab|---5-5555555555555----------|------------777777---------|
Eb|----------------------------|---5-555555----------------|

CHORUS

Gb|---------------------------|---------------------------|
Db|---------------------------|---------------------------|
Ab|--55555555-55555555--------|---------------------------|
Eb|---------------------------|--55555555-55555555--------|

Gb|---------------------------|---------------------------|
Db|---------------------------|---------------------------|
Ab|--55555555-55555555--------|---------------------------|
Eb|---------------------------|--22222222-00000000-5------|
   
Gb|---------------------------|---------------------------|\
Db|---------------------------|---------------------------| \
Ab|--555---555---555---555----|---------------------------| / x2
Eb|---------------------------|--222---222---222---x5-----|/

BRIDGE

Gb|-----------------------|------------------------|
Db|-----------------------|------------------------|
Ab|--5555555555555777-----|--9999999999999777------|
Eb|-----------------------|------------------------|
                                         
Gb|-----------------------|------------------------|
Db|-----------------------|------------------------|
Ab|--5555555555555777-----|---------------77---77--|
Eb|-----------------------|---55555555-------------|
                                        

FINAL CHORUS


Gb|---------------------------|---------------------------|
Db|---------------------------|---------------------------|
Ab|--55555555-55555555--------|---------------------------|
Eb|---------------------------|--55555555-55555555--------|

Gb|---------------------------|---------------------------|
Db|---------------------------|---------------------------|
Ab|--55555555-55555555--------|---------------------------|
Eb|---------------------------|--22222222-00000000--------|
   
Gb|---------------------------|-------------------------|\
Db|---------------------------|-------------------------| \
Ab|--5555555555555555---------|-------------------------| /x2
Eb|---------------------------|--222222222222555--------|/

Gb|---------------------------|-------------------------|\
Db|---------------------------|-------------------------| \
Ab|--5555555555555555---------|-------------------------| /x2
Eb|---------------------------|--2222222222222222-------|/

END
Gb|--------|
Db|--------|
Ab|--7-----|
Eb|-----5--|
            
Submit corrections

↑ Back to top | Tablatures and chords for acoustic guitar and electric guitar, ukulele, drums are parodies/interpretations of the original songs. You may use it for private study, scholarship, research or language learning purposes only