Home » M » Man Overboard »

Man Overboard - Cry Baby Tabs

Artists:  A B C D E F G H I J K L M N O P Q R S T U V W X Y Z # 

Cry Baby Tabs

(ver. 2) Click to play this song!
Man Overboard
-------------------------------------------------------------------------------
                             man overboard-cry baby
-------------------------------------------------------------------------------

Tuning:standard
Intro:
e|------------4------------4----------------4-----------4--------------------|
B|---------6-----6------6-----6----------6-----6-----6-----6-----------------|
G|-----6------------6------------6----5-----------5-----------5--------------|
D|---------------------------------------------------------------------------|
A|---------------------------------------------------------------------------|
E|---------------------------------------------------------------------------|

e|-----------4------------4--------------|
B|--------6-----6------6-----6-----------|
G|----3------------3------------3--------|
D|---------------------------------------|
A|---------------------------------------|
E|---------------------------------------|

e|--------------------------------------|
B|--------------------------------------|
G|-1--1---3---3--1---5--5--3--6--6/8----|
D|--------------------------------------|
A|--------------------------------------|
E|--------------------------------------|
guitar 1 solo : repeat 16x
e|--9----11----13---11--9--|
B|-------------------------|
G|-------------------------|
D|-------------------------|
A|-------------------------|
E|-------------------------|
inturlude escalate after solo:
e|------------------------------|
B|------------------------------|
G|--3--1--3--5--3--5--6--4--6/8-|
D|------------------------------|
A|------------------------------|
E|------------------------------|
Back to intro/ending.
e|------------4------------4----------------4-----------4--------------------|
B|---------6-----6------6-----6----------6-----6-----6-----6-----------------|
G|--6--6------------6------------6----5-----------5-----------5--------------|
D|---------------------------------------------------------------------------|
A|---------------------------------------------------------------------------|
E|---------------------------------------------------------------------------|

e|-----------4------------4--------------|
B|--------6-----6------6-----6-----------|
G|----3------------3------------3--------|
D|---------------------------------------|
A|---------------------------------------|
E|---------------------------------------|

e|--------------------------------------|
B|--------------------------------------|
G|-1--1---3---3--1---5--5--3--6--6/8----|
D|--------------------------------------|
A|--------------------------------------|
E|--------------------------------------|
************************************

| /   slide up
| \   slide down
| h   hammer-on
| p   pull-off
| ~   vibrato
| +   harmonic
| x   Mute note
| b   Bend
| pb  Pre-bend
| br  Bend release
| pbr Pre-bend release
| brb Bend release bend

************************************
            
Submit corrections

↑ Back to top | Tablatures and chords for acoustic guitar and electric guitar, ukulele, drums are parodies/interpretations of the original songs. You may use it for private study, scholarship, research or language learning purposes only