Home » M » Man Overboard »

Man Overboard - Al Sharpton Bass

Artists:  A B C D E F G H I J K L M N O P Q R S T U V W X Y Z # 

Al Sharpton Bass

(ver. 2) Click to play this song!
Man Overboard
 Rating:
4.4/5 (14 votes)
                Intro - 0.02 - 00.21

G|---------------------------------------------------------------------------|
D|---------------------------------------------------------------------------|
A|---------------------------------------------------------------------------|
E|-4-4-4-4-4-4-4-4-7-7-7-7-7-7-7-7-2-2-2-2-2-2-2-2-4-4-4-4-4-4-4-4-----------| x4

Verse - 00.21 - 00.39

G|---------------------------------------------------------------------------|
D|---------------------------------------------------------------------------|
A|-4-----------------------------3-------------------------------------------|
E|------------------4--------------------------------------------------------|

G|---------------------------------------------------------------------------|
D|---------------------------------------------------------------------------|
A|-2-2-2-2-2-2-2-2-2-2-2-2-2-2-2-2-------------------------------------------|
E|---------------------------------2-2-2-2-2-2-2-2-2-2-2-2-2-2-2-2-----------|

G|---------------------------------------------------------------------------|
D|---------------------------------------------------------------------------|
A|-4-----------------------------3-------------------------------------------|
E|------------------4--------------------------------------------------------|

G|---------------------------------------------------------------------------|
D|---------------------------------------------------------------------------|
A|-2-2-2-2-2-2-2-2-2-2-2-2-2-2-2-2-------------------------------------------|
E|---------------------------------2-2-2-2-2-2-2-2-2-2-2-2-2-2--1------------|

Pre-Chorus - 00.39 - 00.58

G|---------------------------------------------------------------------------|
D|---------------------------------------------------------------------------|
A|---------------------------------2-----------------------------------------|
E|-0-------------------2------------------------4----------------------------| x2

G|---------------------------------------------------------------------------|
D|---------------------------------------------------------------------------|
A|---------------------------------------------------------------------------|
E|-0-0-0-0-0-0-0-0-0-0-0-0-0-0-0-0-2-2-2-2-2-2-2-2-2-2-2-2-2-2-2-2-----------|

G|---------------------------------------------------------------------------|
D|---------------------------------------------------------------------------|
A|-2-2-2-2-2-2-2-2-2-2-2-2-2-2-2-2-------------------------------------------|
E|---------------------------------4-4-4-4-4-4-4-4-4-4-4-4-4-4-4-4x----------|

Chorus - 00.58 - 01.17

G|---------------------------------------------------------------------------|
D|---------------------------------------------------------------------------|
A|---------------------------------------------------------------------------|
E|-4-4-4-4-4-4-4-4-7-7-7-7-7-7-7-7-2-2-2-2-2-2-2-2-4-4-4-4-4-4-4-4-----------| x4

Verse - 01.17 - 01.36

G|---------------------------------------------------------------------------|
D|---------------------------------------------------------------------------|
A|-4-----------------------------3-3---3--3----------------------------------|
E|------------------4--------------------------------------------------------|

G|---------------------------------------------------------------------------|
D|---------------------------------------------------------------------------|
A|-2-2-2-2-2-2-2-2-2-2-2-2-2-2-2-2-------------------------------------------|
E|---------------------------------2-2-2-2-2-2-2-2-2-2-2-2-2-2-2-2-----------|

G|---------------------------------------------------------------------------|
D|---------------------------------------------------------------------------|
A|-4-----------------------------3---3---3-----------------------------------|
E|------------------4--------------------------------------------------------|

G|---------------------------------------------------------------------------|
D|---------------------------------------------------------------------------|
A|-2-2-2-2-2-2-2-2-2-2-2-2-2-2-2-2-------------------------------------------|
E|---------------------------------2-2-2-2-2-2-2-2-2-2-2-2-2-2--1------------|

Pre-Chorus - 01.36 - 01.54

G|---------------------------------------------------------------------------|
D|---------------------------------------------------------------------------|
A|---------------------------------2-----------------------------------------|
E|-0-------------------2------------------------4----------------------------| x2

G|---------------------------------------------------------------------------|
D|---------------------------------------------------------------------------|
A|---------------------------------------------------------------------------|
E|-0-0-0-0-0-0-0-0-0-0-0-0-0-0-0-0-2-2-2-2-2-2-2-2-2-2-2-2-2-2-2-2-----------|

G|---------------------------------------------------------------------------|
D|---------------------------------------------------------------------------|
A|-2-2-2-2-2-2-2-2-2-2-2-2-2-2-2-2-------------------------------------------|
E|---------------------------------4-4-4-4-4-4-4-4x--------------------------|

Bridge - 01.54 - 02.13

G|---------------------------------------------------------------------------|
D|---------------------------------------------------------------------------|
A|-4-----------------------------3-------------------------------------------|
E|------------------4--------------------------------------------------------| x4

Chorus - 02.13 - End. 

G|---------------------------------------------------------------------------|
D|---------------------------------------------------------------------------|
A|---------------------------------------------------------------------------|
E|-4-4-4-4-4-4-4-4-7-7-7-7-7-7-7-7-2-2-2-2-2-2-2-2-4-4-4-4-4-4-4-4-----------| x4

            
Submit corrections

↑ Back to top | Tablatures and chords for acoustic guitar and electric guitar, ukulele, drums are parodies/interpretations of the original songs. You may use it for private study, scholarship, research or language learning purposes only