» » »

Mando Diao - Josephine Bass

Artists:  A B C D E F G H I J K L M N O P Q R S T U V W X Y Z # 

Josephine Bass

(ver. 1) Click to play this song!
Mando Diao
 Rating:
4/5 (4 votes)


 Josephine lessons Tabs too difficult? Try these video lessons and learn fast
 
                -------------------------------------------------------------------------------
			     Josephine - Mando Diao
-------------------------------------------------------------------------------

Tuning:Standard


Hey I hope I figure it out right, if not comment and correct.
Nice Song with a nice Bass. Please rate.
Enjoy (:



Intro:
Bass comes in at 0:14:
G|----------------------------------------------------------|
D|----------------------------------------------------------|
A|--------------------9-9-9---6-----7777-66-6-66-6-7777-----|
E|--14-14-14\7-7------------7--------------------------7777-|

Verse:
G|--------------------------------------------------|
D|--------------------------------------------------|
A|----------9-9-9---6---7777-66-6-66-6-7777/9999----|
E|--7-7-----------7---------------------------------|

G|--------------------------------------------------|
D|--------------------------------------------------|
A|----------9-9-9---6---7777-66-6-66-6-7777/9-\-2---|
E|--7-7-----------7---------------------------------|

Chorus:
G|-----------------------------------------------------------------------------|
D|-----------------------------------------------------------------------------|
A|-9h11-11--11-11-11--11--10-10--10-10-10--10--9-9--9-9-9--9--8-8--8-8-8--8----|
E|-----------------------------------------------------------------------------|

G|-------------------------------------------------------------------------------|
D|-------------------------------------------------------------------------------|
A|-7-7--7-7-7--7--9-9--9-9-9--9------------------------69-11--11-11--11-11-11--11|
E|-------------------------------7-7--7-7-7--7-7-7--7-7--------------------------|

G|---------------------------------------------------------------------------|
D|---------------------------------------------------------------------------|
A|-11-11--11-11-11--11--10-10--10-10-10--10--9-9--9-9-9--9--8-8--8-8-8--8----|
E|---------------------------------------------------------------------------|

G|-------------------------------------------------------|
D|-------------------------------------------------------|
A|-7-7--7-7-7--7--9-9--9-9-9--9--------------------------|
E|-------------------------------7-7--7-7-7--7-7-7--7-7-7|

Verse:
G|-------------------------------------------------|
D|-------------------------------------------------|
A|------6-9-99------6-7-77---66666666--77-7-99-9---|
E|--7-9---------7-9--------------------------------|

G|-------------------------------------------------|
D|-------------------------------------------------|
A|------6-9-99------6-7-797---66666666--77-7-------|
E|--7-9---------7-9--------------------------7777--|

Chorus:

G|---------------------------------------------------------------------------|
D|---------------------------------------------------------------------------|
A|-11-11--11-11-11--11--10-10--10-10-10--10--9-9--9-9-9--9--8-8--8-8-8--8----|
E|---------------------------------------------------------------------------|

G|---------------------------------------------------------|
D|---------------------------------------------------------|
A|-7-7--7-7-7--7--9-9--9-9-9--9-------------------------6-9|
E|------------------------------7-7-7-7-7-7-7-7-7-7-7-7----|

G|---------------------------------------------------------------------------|
D|---------------------------------------------------------------------------|
A|-11-11--11-11-11--11--10-10--10-10-10--10--9-9--9-9-9--9--8-8--8-8-8--8----|
E|---------------------------------------------------------------------------|

G|------------------------------|
D|------------------------------|
A|-7-7--7-7-7--7--9-9--9-9-9--9-|
E|------------------------------|

G|----------------------------------------------------------|
D|----------------------------------------------------------|
A|-----6-99999999------6-77777777-666666666--77-7--99-9-----|
E|-7-9------------7-9---------------------------------------|

G|----------------------------------------------------------|
D|----------------------------------------------------------|
A|-----6-99-9----------6-77-7-66-6-66-6--7777-2~~~----------|
E|-7-9------------7-9---------------------------------------|



| /  slide up
| \  slide down
| h  hammer-on
| p  pull-off
| ~  vibrato
| +  harmonic
| x  Mute note
===============================================================================
            
Submit corrections



        Josephine lessons Hard to play? Try these video lessons and learn fast Josephine lessons
        
↑ Back to top | Tablatures and chords for acoustic guitar and electric guitar, ukulele, drums are parodies/interpretations of the original songs. You may use it for private study, scholarship, research or language learning purposes only