» » »

Mando Diao - Good Morning, Herr Horst Bass

Artists:  A B C D E F G H I J K L M N O P Q R S T U V W X Y Z # 

Good Morning, Herr Horst Bass

(ver. 2) Click to play this song!
Mando Diao
 Rating:
4/5 (4 votes)


 Good Morning, Herr Horst lessons Tabs too difficult? Try these video lessons and learn fast
 
                Mando Diao - Good Morning,Herr Horst.
standard tuning

verse
G|--------------------------------------------------------------------------|
D|--------------------------------------------------------------------------|
A|---5---5---5--5---5/8------5----------------------------------------------|
E|-----5---5--5---5------7h8------------------------------------------------|
buildup ("now i'm bleeding,and i'm freezing...")
G|--------------------------------------------------------------------------|
D|---------------------------7---7------------------------------------------|
A|-6-7-8-9----10----10---------7----7---------------------------------------|
E|---------------10----10---------------------------------------------------|
chorus ("lalalalala...")
G|--------------------------------------------------------------------------|
D|--------------------------------------------------------------------------|
A|----5---5---5---0-3-5----5---5---5--0-3-5---5--5--5---8----5--------------|
E|------5---5---5--------5---5---5---5------5---5--5--5---8-----------------|
            
Submit corrections



        Good Morning, Herr Horst lessons Hard to play? Try these video lessons and learn fast Good Morning, Herr Horst lessons
        
↑ Back to top | Tablatures and chords for acoustic guitar and electric guitar, ukulele, drums are parodies/interpretations of the original songs. You may use it for private study, scholarship, research or language learning purposes only