» » »

Mana - Te Llore Un Rio Bass

Artists:  A B C D E F G H I J K L M N O P Q R S T U V W X Y Z # 

Te Llore Un Rio Bass

(ver. 1) Click to play this song!
Mana
 Rating:
4/5 (4 votes)


 Te Llore Un Rio lessons Tabs too difficult? Try these video lessons and learn fast
 
                Tuning: E A D G 


Intro
|--------------------------|
|--------------------------|
|--------------------------|
|0--9--5--7--0--9--5--7--0-|


Verse + Bridge
|---------------------------------------------------------|
|---------------------------------------------------------|
|---------11------------11-11--------------6--------6-6-9-|
|12-12-12---------12-12-------12-----7-7-7------7-7-------|

|-----------------------------------------------|
|-----------------------------------------------|
|----11-11------11-11------------6--------6-6-9-|
|9-9--------9-9-------9----7-7-7------7-7-------|

|---------------------------------------------------------|
|---------------------------------------------------------|
|---------11------------11-11--------------6--------6-6-9-|
|12-12-12---------12-12-------12-----7-7-7------7-7-------|

|-----------------------------------------------|
|-----------------------------------------------|
|----11-11------11-11------------4-------4-4-7--|
|9-9--------9-9-------9----5-5-5-----5-5--------|

|-------------------------------------------------------------------|
|-------------------------------------------------------------------|
|------6-------6-6-9--------11-11-------11-11-----------6-----------|
|7-7-7-----7-7----------9-9---------9-9-------9---7-7-7-----7-7-7-6-|


|-------------------------------------------------------|
|-------------------------------------------------------|
|------4--------4-4-7----------6--------6-6-9-----------|
|5-5-5------5-5----------7-7-7------7-7-----------------|

|------------------------------------------------|
|------------------------------------------------|
|----11-11-------11-11------------6--------6-6-9-|
|9-9---------9-9-------9----7-7-7------7-7-------|



Chorus
|-------------------------------------------------------|
|-------------------------------------------------------|
|-----------------------4-4-7---------6-6-9-------------|
|12-12-----9-9----5-5-5---------7-7-7-------------------|x4 (last repetition end in open e)


Verse + Bridge


Chorus


Outro
|---------------------------------------------------------|
|---------------------------------------------------------|
|--------------------------4-4-7---------6-6-9------------|
|12-12-12-----9-9-9----5-5---------7-7-7------------------|x2

|--------------------------------------------------------|
|--------------------------------------------------------|
|---12-14-12-14------9-10-9-10-------4-4-7---------6-6-9-|
|12----------------9-------------5-5---------7-7-7-------|(until song fades)
            
Submit corrections



        Te Llore Un Rio lessons Hard to play? Try these video lessons and learn fast Te Llore Un Rio lessons
        
↑ Back to top | Tablatures and chords for acoustic guitar and electric guitar, ukulele, drums are parodies/interpretations of the original songs. You may use it for private study, scholarship, research or language learning purposes only