Home » M » Mana »

Mana - Adicto A Tu Amor Chords

Artists:  A B C D E F G H I J K L M N O P Q R S T U V W X Y Z # 

Adicto A Tu Amor Chords

(ver. 1) Click to play this song!
Mana
[Intro]
N.C.
e||-8--5-----8--7-----8--8--5-----8--7-----5--||
B||-------5--------5-----------5--------8-----||
G||-------------------------------------------||
D||-------------------------------------------||
A||-------------------------------------------||
E||-------------------------------------------||
 
 
[Verse 1]
picking pattern throughout verse and bridge - played by guitar 1
 
    Am           C        Dm           E
e||-----0-----------0---|-----1-----------0---||
B||---------1-------1---|---------3-------1---||
G||---2-------2-----0---|---2-------2-----2---||
D||---------------------|-0-------------------||
A||-0------------3------|---------------------||
E||---------------------|--------------0------||
 
in second half of verse guitar 2 play this in addition
 
    Am           C        Dm           E
e||---------------------|------10-10-10--- 12-||
B||---------------------|------10-10-10--- 12-||
G||---------------------|------10-10-10--- 13-||
D||---------------------|---------------------||
A||---------------------|---------------------||
E||---------------------|---------------------||
 
 
Am      C
Con ella
Dm      E         Am       C
Estoy adicto a su sexy amor
Dm          E                Am      C
Para mi en su velar, me hace alucinar
Dm         E               Am C Dm E
Soy un convicto de tu amor
 
  Am        C          Dm     E
Y es que te beso en la cocina
   Am      C            Dm    E
Te hago el amor en la oficina
Am          C    Dm         E
No logro evitar, voy a penetrar
  Am       C          Dm   E
Ese arco iris me fascina
 
 
[Bridge]
 
guitar 2 play this in addition
 
    Am              C        Dm           E
e||-------12-12-12--12-----|---------------12--||
B||-------13-13-13--13-----|---------------12--||
G||-------14-14-14--12-----|---------------13--||
D||------------------------|-------------------||
A||------------------------|-------------------||
E||------------------------|-------------------||
 
 
Am    C      Dm              E            Am     C
Suben, mis labios quieren subir hasta tus caderas
    Dm             E                  Am   C
Mis labios quieren bajar, hasta tu pecera
    Dm        E          Am
Mami soy un adicto de tu amor, no lo puedo negar
 
 
[Chorus]
Am*                              E7
Eres mi pasión, eres mi obsesión
Am*                                E7
Eres tu mi adicción, eres tu mi sol
Am*
Soy adicto de tu amor, no lo puedo negar
               E7
Soy adicto de tu amor
Am*        C*   Dm*        E7
Eres mi pasión, eres mi obsesión
Am*         C*       Dm*        E7
Eres tu mi adicción, eres tu mi sol
Am*
I'm addicted, no lo puedo negar
E7
I'm addicted
 
 
[Interlude]
 
e||-8--5-----8--7-----8--8--5-----8--7-----5--||
B||-------5--------5-----------5--------8-----||
G||-------------------------------------------||
D||-------------------------------------------||
A||-------------------------------------------||
E||-------------------------------------------||
 
 
 
[Verse 2]
N.C.
Que manera hermosa como muerdes
Am          C        Dm      E
Hay algo de sexy en tu mirar
Am              C       Dm     E
Soy como un volcán y tu falda cae
   Am      C          Dm    E
Estamos empapados en amor
 
 
[Bridge]
 
Am    C      Dm              E            Am     C
Suben, mis labios quieren subir hasta tus caderas
    Dm             E                  Am   C
Mis labios quieren bajar, hasta tu pecera
    Dm        E          Am
Mami soy un adicto de tu amor, no lo puedo negar
 
Am* Am* Am* E7
 
 
[Chorus]
Am*                              E7
Eres mi pasión, eres mi obsesión
Am*                                E7
Eres tu mi adicción, eres tu mi sol
Am*
Soy adicto de tu amor, no lo puedo negar
               E7
Soy adicto de tu amor
Am*        C*   Dm*        E7
Eres mi pasión, eres mi obsesión
Am*         C*       Dm*        E7
Eres tu mi adicción, eres tu mi sol
Am*
I'm addicted, no lo puedo negar
E7
I'm addicted
 
 
[Interlude 2]
    Am       C        Dm      E
e||-----0-------0---|-----1-------0---||
B||-------1-------1-|-------3-------1-||
G||---2-------2-----|---2-------2-----||
D||-----------------|-0---------------||
A||-0--------3------|-----------------||
E||-----------------|---------0-------||
 
   Am   C  Dm     E
Te amaría noche y día
   Am   C  Dm     E
Te amaría de por vida
Am  C   Dm   E7
Es una adicción, no lo puedo negar!
Am                 E7
no lo puedo negar
 
 
[Interlude and Solo]
 
e||-8--5-----8--7-----8--8--5-----8--7-----5--||
B||-------5--------5-----------5--------8-----||
G||-------------------------------------------|| x2
D||-------------------------------------------||
A||-------------------------------------------||
E||-------------------------------------------||
 
Am E7 Am E7
 
 
[Chorus]
N.C.
Eres mi pasión, eres mi obsesión
N.C.                             E7
Eres tu mi adicción, eres tu mi sol
Am*                                E7
No lo puedo negar, no lo puedo negar
Am*                  E7  Am*
Adicción, obsesión,      adicción
                        E7
Pierdo, pierdo la razón
Am*
Se que soy adicto
   E7        Am*    E7
Adicto de tu amor
Am*            Am*
No lo puedo negar
            
Submit corrections

↑ Back to top | Tablatures and chords for acoustic guitar and electric guitar, ukulele, drums are parodies/interpretations of the original songs. You may use it for private study, scholarship, research or language learning purposes only