Home » M » Mallory Knox »

Mallory Knox - Shout At The Moon Tabs

Artists:  A B C D E F G H I J K L M N O P Q R S T U V W X Y Z # 

Shout At The Moon Tabs

(ver. 1) Click to play this song!
Mallory Knox
 Rating:
2.2/5 (26 votes)
                Drop D

Intro riff 1 Guitar 1
e|---------------------------------------------------------------|
B|---------------------------------------------------------------|
G|-------10-8-5h6-5h6--------------------------------------------|
D|-6h8-----------------------------------------------------------|
A|-----8---------------------------------------------------------|
E|---------------------------------------------------------------|

Intro riff 2 Guitar 1
e|---------------------------------------------------------------|
B|---------------------------------------------------------------|
G|-------10-8-5h6-5h6-------10-8-5h6-5h6-------10-8-5h6p5h6------|
D|-6h8----------------6h8----------------6h8---------------------|
A|-----8------------------8------------------8-------------------|
E|---------------------------------------------------------------|

e|---------------------------------------------------------------|
B|---------------6s9-9s11----------------------------------------|
G|-------10-8-10-------------------------------------------------|
D|-6h8-----------------------------------------------------------|
A|-----8---------------------------------------------------------|
E|---------------------------------------------------------------|

Intro riff 2 Guitar 2
e|---------------------------------------------------------------|
B|---------------------------------------------------------------|
G|---------------------------------------------------------------|
D|-8888-6666-4444-11-11-11-11------------------------------------|
A|-8888-6666-4444-11-11-11-11------------------------------------|
E|-8888-6666-4444-11-11-11-11------------------------------------|

e|---------------------------------------------------------------|
B|---------------------------------------------------------------|
G|---------------------------------------------------------------|
D|-8888-6666-4444-11-11-11-11------------------------------------|
A|-8888-6666-4444-11-11-11-11------------------------------------|
E|-8888-6666-4444-11-11-11-11------------------------------------|

Verse 1 Guitar 2 x 4
e|---------------------------------------------------------------|
B|---------------------------------------------------------------|
G|---------------------------------------------------------------|
D|-8~~~~--4~~~~--6~~~~-------------------------------------------|
A|-8~~~~--4~~~~--6~~~~-------------------------------------------|
E|-8~~~~--4~~~~--6~~~~-------------------------------------------|
?
Verse 1 Guitar 1 x 3
e|---------------------------------------------------------------|
B|---------------------------------------------------------------|
G|---------------------------------------------------------------|
D|-6s8-8s10-10s11--6s8-8s10-10s11--------------------------------|
A|---------------------------------------------------------------|
E|---------------------------------------------------------------|

Pre Chorus Guitar 1 x 2
e|---------------------------------------------------------------|
B|---13h14-13h14---13h14-13h14---13h14-13h14---13h14-13h14-------|
G|-13------------13------------13------------13------------------|
D|---------------------------------------------------------------|
A|---------------------------------------------------------------|
E|---------------------------------------------------------------|

Pre Chorus Guitar 2
e|---------------------------------------------------------------|
B|---------------------------------------------------------------|
G|---------------------------------------------------------------|
D|-----------------------------------------------pm888888--------|
A|-----------------------------------------------pm888888--------|
E|-----------------------------------------------pm888888--------|

Chorus Guitar 1
e|---------------------------------------------------------------|
B|---------------------------------------------------------------|
G|---------------------------------------------------------------|
D|-4444-6666-8888-6666-4444-6666-8888-6666-----------------------|
A|-4444-6666-8888-6666-4444-6666-8888-6666-----------------------|
E|-4444-6666-8888-6666-4444-6666-8888-6666-----------------------|

e|---------------------------------------------------------------|
B|---------------------------------------------------------------|
G|---------------------------------------------------------------|
D|-4444-11-11-11-11-6666-8888-44444444-66666666------------------|
A|-4444-11-11-11-11-6666-8888-44444444-66666666------------------|
E|-4444-11-11-11-11-6666-8888-44444444-66666666------------------|

Chorus Guitar 2 x 4
e|---------------------------------------------------------------|
B|-14-14-14-14-16-16-16-16-18-18-18-18-16-16-16-16---------------|
G|---------------------------------------------------------------|
D|---------------------------------------------------------------|
A|---------------------------------------------------------------|
E|---------------------------------------------------------------|

Chorus Guitar 2 x 4
e|---------------------------------------------------------------|
B|-14h16-14h16-18-16-14h16--14h16-14h16-18-16-14h16--------------|
G|---------------------------------------------------------------|
D|---------------------------------------------------------------|
A|---------------------------------------------------------------|
E|---------------------------------------------------------------|



Post Chorus Guitar 1 x 2
e|---------------------------------------------------------------|
B|---13h14-13h14---13h14-13h14---13h14-13h14---13h14-13h14-------|
G|-13------------13------------13------------13------------------|
D|---------------------------------------------------------------|
A|---------------------------------------------------------------|
E|---------------------------------------------------------------|

Post Chorus Guitar 2 x 1
e|---------------------------------------------------------------|
B|---------------------------------------------------------------|
G|---------------------------------------------------------------|
D|-8888-6666-4444-6666-8888-6666-4444-6666-----------------------|
A|-8888-6666-4444-6666-8888-6666-4444-6666-----------------------|
E|-8888-6666-4444-6666-8888-6666-4444-6666-----------------------|

Verse 2 Guitar 1 x 2
e|---------------------------------------------------------------|
B|---------------------------------------------------------------|
G|---------------------------------------------------------------|
D|-------------13-----------------------13-----------------------|
A|-11-11-10h11----11-10h11--11-11-10h11----11-10h11--------------|
E|---------------------------------------------------------------|

e|---------------------------------------------------------------|
B|---------------------------------------------------------------|
G|---------------------------------------------------------------|
D|-------------13-----------------------11h10--------------------|
A|-11-11-10h11----11-10h11--11-11-10h11-------11-10h11-----------|
E|---------------------------------------------------------------|

Verse 2 Guitar 2 x 3
e|---------------------------------------------------------------|
B|---------------------------------------------------------------|
G|---------------------------------------------------------------|
D|-4-4-444-6-6-666-8-8-888-6-6-666-------------------------------|
A|-4-4-444-6-6-666-8-8-888-6-6-666-------------------------------|
E|-4-4-444-6-6-666-8-8-888-6-6-666-------------------------------|

e|---------------------------------------------------------------|
B|---------------------------------------------------------------|
G|---------------------------------------------------------------|
D|-4-4-444-6-6-666-88888888-66666666-----------------------------|
A|-4-4-444-6-6-666-88888888-66666666-----------------------------|
E|-4-4-444-6-6-666-88888888-66666666-----------------------------|

Repeat Chorus            
Submit corrections

↑ Back to top | Tablatures and chords for acoustic guitar and electric guitar, ukulele, drums are parodies/interpretations of the original songs. You may use it for private study, scholarship, research or language learning purposes only