Home » M » Mallory Knox »

Mallory Knox - Oceans Bass

Artists:  A B C D E F G H I J K L M N O P Q R S T U V W X Y Z # 

Oceans Bass

(ver. 1) Click to play this song!
Mallory Knox
 Rating:
4/5 (4 votes)
                This version may not be 100% accurate, but that's how I play it with my band.



Interlude:
G|----------------------------------------------------------------------------|
D|----------------------------------------------------------------------------|
A|-------------8-x4-----------------8-x4--------------------------------------|  
D|---0----x4--------------0---x3-------------8-x5-------3--5--3--5--3---------|


G|----------------------------------------------------------------------------|
D|----------------------------------------------------------------------------|
A|-------------8-x4-----------------8-x4--------------------------------------|  
D|---0----x4--------------0---x3-------------8-x8-----------------------------|


Vers 1
G|----------------------------------------------------------------------------|
D|----------------------------------------------------------------------------|
A|----------------------------------------------------------------------------|
D|------------------------------------------------------------8--8------------|


G|----------------------------------------------------------------------------|
D|----------------------------------------------------------------------------|
A|----10-x16----5-x8---4-x8------10-x16---8-x8--7-x8--------------------------| x2
D|----------------------------------------------------------------------------|


Interlude:
G|----------------------------------------------------------------------------|
D|----------------------------------------------------------------------------|
A|-------------8-x4-----------------8-x4--------------------------------------|  
D|---0----x4--------------0---x3-------------8-x5-------3--5--3--5--3---------|


G|----------------------------------------------------------------------------|
D|----------------------------------------------------------------------------|
A|-------------8-x4-----------------8-x4--------------------------------------|  
D|---0----x4--------------0---x3-------------8-x8-----------------------------|


Vers 2:
G|----------------------------------------------------------------------------|
D|----------------------------------------------------------------------------|
A|----------------------------------------------------------------------------|
D|-----5--x8-----7---3---8--x14-----0--x8---10---3---8-----x14----------------|


G|----------------------------------------------------------------------------|
D|----------------------------------------------------------------------------|
A|----------------------------------------------------------------------------|
D|---5--x8------7---x8----8---x8----11----x8----------------------------------|



G|----------------------------------------------------------------------------|
D|----------------------------------------------------------------------------|
A|----------------------------------------------------------------------------|
D|-----0--x8---10---3---8--x14------------------------------------------------|



Vers 3: I'm not sure what he plays here but i think that this sounds pretty cool :)
G|----------------------------------------------------------------------------|
D|--0----3--2---0------3--2---0-----------------------------------------------|
A|----------------------------------------------------------------------------|
D|---------------------------------8-x8----5-x8-------------------------------|



G|----------------------------------------------------------------------------|
D|--0----3--2---0------3--2---0-----------------------------------------------|
A|----------------------------------------------------------------------------|
D|-----------------------------------8-x8-------------------------------------|


Coda:

G|----------------------------------------------------------------------------|
D|----------------------------------------------------------------------------|
A|----------------------------------------------------------------------------|
D|----8--x16-----10--x16------0--x32------------------------------------------|


Outro:

G|----------------------------------------------------------------------------|
D|----------------------------------------------------------------------------|
A|---------------10--12-------------------------------------------------------| x2
D|----8--10--7-----------12---12---14-15--------------------------------------|


G|----------------------------------------------------------------------------|
D|----------------------------------------------------------------------------|
A|----------------------------------------------------------------------------|
D|----8--10--7-----------12---------------------------------------------------|
            
Submit corrections

↑ Back to top | Tablatures and chords for acoustic guitar and electric guitar, ukulele, drums are parodies/interpretations of the original songs. You may use it for private study, scholarship, research or language learning purposes only