Home » M » Mallory Knox »

Mallory Knox - Dying To Survive Tabs

Artists:  A B C D E F G H I J K L M N O P Q R S T U V W X Y Z # 

Dying To Survive Tabs

(ver. 1) Click to play this song!
Mallory Knox
 Rating:
4/5 (4 votes)
                Tuning: Drop C#
Intro (Repeat 3 times)
C#|-----------------------------------------------------------------------------------------| 
G#|---------------------------------10-12---12-10-12----12-12-12-10-12----12-12------10-12--|
C#|14-1414-12-10--10-10-10-12h14p12------------------10----------------10-------10-9--------|
F#|-----------------------------------------------------------------------------------------|
A#|-----------------------------------------------------------------------------------------|
D#|-----------------------------------------------------------------------------------------|

Chorus (Repeat 2 times, work out the rhythm for yourself/use cover for reference, it's simple)
C#|-3---5---7----12---5---7---5-----------------------------------------------|
G#|-3---5---7----12---5---7---5-----------------------------------------------|
C#|-3---5---7----12---9---7---5-----------------------------------------------|
F#|---------------------------------------------------------------------------|
A#|---------------------------------------------------------------------------|
D#|---------------------------------------------------------------------------|

REPEAT INTRO RIFF ONCE.

Verse 2 (Repeat 15 times, there is a variation in here somewhere but I can't quite work it out)
C#|--------------------------------------------------------------------------------|
G#|--------------------------------------------------------------------------------|
C#|-7-5h7---7----------------------------------------------------------------------|
F#|-------5------------------------------------------------------------------------|
A#|--------------------------------------------------------------------------------|
E#|--------------------------------------------------------------------------------|

REPEAT CHORUS

Pre-bridge part 1 (Repeat twice)
C#|---------------------------------------------------------------------------|
G#|-14--12--10---------10-10-12p10------------------12h14p12------------------|
C#|-----------12-10h12-------------x2 finish with -----------12--x3-----------|
F#|---------------------------------------------------------------------------|
A#|---------------------------------------------------------------------------|
E#|---------------------------------------------------------------------------|

Part 2
C#|---------------------------------------------------------------------------|
G#|---------------------------------------------------------------------------|
C#|---------------------------------------------------------------------------|
F#|-----------14-12h14-------------x2 finish with---------14-x2-12-14-12-14b--|
A#|17--15--13---------13-13-15p13-----------------15h17p15--------------------|
D#|---------------------------------------------------------------------------|

Outro (Repeat 4 times)
C#|------------------------------------------------------------------------------|
G#|------------------------------------------------------------------------------|
C#|------------------------------------------------------------------------------|
F#|14--14--12-14-------14-14--14--12-14------------------------14----------------|
A#|-------------13--13------------------13h15p13-17---13h15p13----17----13h15p13-|
D#|------------------------------------------------15----------------15----------|

C#|---------------------------------------------------------------------------|
G#|---------------------------------------------------------------------------|
C#|---------------------------------------------------------------------------|
F#|-14--12-14----14-----------------14----------------------------------------|
A#|-----------13----13-15-15b-13-15-------------------------------------------|
D#|---------------------------------------------------------------------------|
            
Submit corrections

↑ Back to top | Tablatures and chords for acoustic guitar and electric guitar, ukulele, drums are parodies/interpretations of the original songs. You may use it for private study, scholarship, research or language learning purposes only