Home » M » Mallory Knox »

Mallory Knox - Beggars Bass

Artists:  A B C D E F G H I J K L M N O P Q R S T U V W X Y Z # 

Beggars Bass

(ver. 1) Click to play this song!
Mallory Knox
 Rating:
4/5 (4 votes)
                Tuning: Drop C#

Intro
F#|-----------------------------------------------------------------|
C#|-----------------------------------------------------------------|
G#|---------------2-3-3-3-3-3-3-3-5-----------------0-0-0-0-2-0-----|
C#|-2-2-2-2-2-2-2-------------------0-0-0-0-0-0-0-0-------------5-0-|

F#|-----------------------------------------------------------------|
C#|-----------------------------------------------------------------|
G#|---------------2-3-3-3-3-3-3-3-5-----------------0-0-0-0-0-0-0-0-|
C#|-2-2-2-2-2-2-2-------------------0-0-0-0-0-0-0-0-----------------|

F#|-----------------------------------------------------------------|
C#|-----------------------------------------------------------------|
G#|-------------------------------------------------0-0-0-0-0-0-0-0-|
C#|-2-2-2-2-2-2-2-2-4-4-4-4-4-4-4-4-5-5-5-5-5-5-5-5-----------------|

F#|-----------------------------------------------------------------|
C#|-----------------------------------------------------------------|
G#|-3-3-3-3-3-3-3-5-0-0-0-0-2-0-------------------------------------|
C#|-----------------------------5-0-2-2-2-2-2-2-2-2-0-0-0-0-0-0-0-0-|

Verse
F#|-----------------------------------------------------------------|
C#|-----------------------------------------------------------------|
G#|-----------------------------------------------------------------|
C#|-2-------------------------5-5-5---------------------------5-5-5-|

F#|-----------------------------------------------------------------|
C#|-----------------------------------------------------------------|
G#|-----------------------------------------------------------------|
C#|---------------------------------------------------0-0-0-0-0-0-0-|

F#|-----------------------------------------------------------------|
C#|-----------------------------------------------------------------|
G#|-----------------------------------------------------------------|
C#|-2-2-2-2-2-2-2-2-2-2-2-2-2-5-5-5-2-2-2-2-2-2-2-2-2-2-2-2-2-5-5-5-|

F#|-----------------------------------------------------------------|
C#|-----------------------------------------------------------------|
G#|-0-0-0-0-0-0-0-0-------------------------------------------------|
C#|-----------------5-5-5-5-5-5-5-5-2-2-2-2-2-2-2-2-0-0-0-0-0-0-0-0-|

Pre Chorus
F#|-----------------------------------------------------------------|
C#|-----------------------------------------------------------------|
G#|-----------------------------------------------------------------|
C#|-----------------------------------------------------------------|

F#|-----------------------------------------------------------------|
C#|-----------------------------------------------------------------|
G#|-----------------------------------------------------------------|
C#|---------------------------------------------------0-0-0-0-0-0-0-|

Chorus
F#|-----------------------------------------------------------------|
C#|-----------------------------------------------------------------|
G#|-----------------------------------------------------------5-5-5-|
C#|-2-2-2-2-2-2-2-2-2-2-2-2-2-2-2-2-0-0-0-0-0-0-0-0-0-0-0-0-0-------|

F#|-----------------------------------------------------------------|
C#|-----------------------------------------------------------------|
G#|-3-3-3-3-3-3-3-3-3-3-3-3-3-3-3-3---------------------------------|
C#|---------------------------------0-0-0-0-0-0-0-0-0-0-0-0-0-0-0-0-|

F#|-----------------------------------------------------------------|
C#|-----------------------------------------------------------------|
G#|-----------------------------------------------------------5-0-5-|
C#|-2-2-2-2-2-2-2-2-2-2-2-2-2-2-2-2-0-0-0-0-0-0-0-0-0-0-0-0-0-------|

F#|-----------------------------------------------------------------|
C#|-----------------------------------------------------------------|
G#|-3-3-3-3-3-3-3-3-3-3-3-3-3-3-3-3---------------------------------|
C#|---------------------------------0-0-0-0-0-0-0-0-0-0-0-0-0-0-0-0-|

Pre Verse
F#|-----------------------------------------------------------------|
C#|-----------------------------------------------------------------|
G#|---------------2-3-3-3-3-3-3-3-5-----------------0-0-0-0-2-0-----|
C#|-2-2-2-2-2-2-2-------------------0-0-0-0-0-0-0-0-------------5-0-|

F#|-----------------------------------------------------------------|
C#|-----------------------------------------------------------------|
G#|---------------2-3-3-3-3-3-3-3-5-----------------0-0-0-0-0-0-0-0-|
C#|-2-2-2-2-2-2-2-------------------0-0-0-0-0-0-0-0-----------------|

F#|--------------------------------|
C#|--------------------------------|
G#|--------------------------------|
C#|-2-2-0-0-1010-------------------| (10's)

Verse 2
F#|-----------------------------------------------------------------|
C#|-----------------------------------------------------------------|
G#|-----------------------------------------------------------------|
C#|-2-2-----------------------5-5-5-0-0---------------------------0-|

F#|-----------------------------------------------------------------|
C#|-----------------------------------------------------------------|
G#|-3-3-----------------------3-3-3---------------------------------|
C#|---------------------------------0-0----------------------0-12\--|

F#|-----------------------------------------------------------------|
C#|-----------------------------------------------------------------|
G#|-----------------------------------------------------------2-2-2-|
C#|-2-2-2-2-2-2-2-2-2-2-2-2-2-4-4-4-5-5-5-5-5-5-5-5-5-5-5-5-5-------|

F#|-----------------------------------------------------------------|
C#|-----------------------------------------------------------------|
G#|-3-3-3-3-3-3-3-3-3-3-3-3-3-3-3-3-5-5-5-5-5-5-5-5-5-5-5-5-5-5-5-5-|
C#|-----------------------------------------------------------------|

F#|-----------------------------------------------------------------|
C#|-----5-------4-------5-------4-------5-------4-------7-----7-10--|
G#|-2-2---2-2-2---2-2-2---2-2-2---2-3-3---3-3-3---3-0-0---0-0-----0-|
C#|-----------------------------------------------------------------|

F#|-----------------------------------------------------------------|
C#|-----5-------4-------5-------4-------5-------4-------------------|
G#|-2-2---2-2-2---2-2-2---2-2-2---2-3-3---3-3-3---3-----------------|
C#|-----------------------------------------------------------------|

Repeat Chorus

Bridge
F#|-----------------------------------------------------------------|
C#|-----------------------------------------------------------------|
G#|-3---------------------------------------------------------------|
C#|-----------------------------------------------------------------|

F#|-----------------------------------------------------------------|
C#|-----------------------------------------------------------------|
G#|-7-------------------------------5-------------------------------|
C#|-----------------------------------------------------------------|

F#|-----------------------------------------------------------------|
C#|-----------------------------------------------------------------|
G#|-3---------------------------------------------------------------|
C#|-----------------------------------------------------------------|

F#|-----------------------------------------------------------------|
C#|-----------------------------------------------------------------|
G#|-7-------------------------------5-5-5-5-5-5-5-5-5-5-5-5-5-5-5-5-|
C#|-----------------------------------------------------------------|

F#|-----------------------------------------------------------------|
C#|-----------------------------------------------------------------|
G#|-3-3-3-3-3-3-3-3-3-3-3-3-3-3-3-5-3-3-3-3-3-3-3-3-3-3-3-3-3-5-5-5-|
C#|-----------------------------------------------------------------|

F#|-----------------------------------------------------------------|
C#|-----------------------------------------------------------------|
G#|-------------------------------------------------5-5-5-5-5-5-5-5-|
C#|-2-2-2-2-2-2-2-2-2-2-2-2-2-2-2-0-0-0-0-0-0-0-0-0-----------------|

F#|-----------------------------------------------------------------|
C#|-----------------------------------------------------------------|
G#|-3-3-3-3-3-3-3-3-3-3-3-3-3-3-3-5-3-3-3-3-3-3-3-3-3-3-3-3-3-5-5-5-|
C#|-----------------------------------------------------------------|

F#|-----------------------------------------------------------------|
C#|-----------------------------------------------------------------|
G#|-------------------------------------------------5-5-5-5-5-5-5-5-|
C#|-2-2-2-2-2-2-2-2-2-2-2-2-2-2-2-0-0-0-0-0-0-0-0-0-----------------|

Outro
F#|-----------------------------------------------------------------|
C#|-----------------------------------------------------------------|
G#|-3---------------------------------------------------------------|
C#|-----------------------------------------------------------------|

F#|-----------------------------------------------------------------|
C#|-----------------------------------------------------------------|
G#|-7-------------------------------5-------------------------------|
C#|-----------------------------------------------------------------|

F#|-----------------------------------------------------------------|
C#|-----------------------------------------------------------------|
G#|-3---------------------------------------------------------------|
C#|-----------------------------------------------------------------|

F#|-----------------------------------------------------------------|
C#|-----------------------------------------------------------------|
G#|-7-------------------------------5-------------------------------|
C#|-----------------------------------------------------------------|            
Submit corrections

↑ Back to top | Tablatures and chords for acoustic guitar and electric guitar, ukulele, drums are parodies/interpretations of the original songs. You may use it for private study, scholarship, research or language learning purposes only