Home » M » Makoto Kawamoto »

Makoto Kawamoto - Our Story Tabs

Artists:  A B C D E F G H I J K L M N O P Q R S T U V W X Y Z # 

Our Story Tabs

(ver. 1) Click to play this song!
Makoto Kawamoto
 Rating:
4.4/5 (5 votes)
                e||-------------------------------------------------------------------|| 
B||--5-----5----5----3-----3--7-----7--8-----8-----8----7----7-----7--||
G||-----0-----0---0-----0--------0--------0-----0----0----0-----0-----||
D||-------------------------------------------------------------------||
A||--3---------------2--------5--------7----------------5-------------||
E||-------------------------------------------------------------------||

e||-------------------------------------------------------------------|| 
B||--5-----5----5----3-----3--7-----7--8-----8-----8----3----3-----3--||
G||-----0-----0---0-----0--------0--------0-----0----0----0-----0-----||
D||-------------------------------------------------------------------||
A||--3---------------2--------5--------7----------------5-------------||
E||-------------------------------------------------------------------||            
Submit corrections

↑ Back to top | Tablatures and chords for acoustic guitar and electric guitar, ukulele, drums are parodies/interpretations of the original songs. You may use it for private study, scholarship, research or language learning purposes only