» » »

Mago De Oz - Noche Toledana Tabs

Artists:  A B C D E F G H I J K L M N O P Q R S T U V W X Y Z # 

Noche Toledana Tabs

(ver. 1) Click to play this song!
Mago De Oz
 Rating:
4.3/5 (24 votes)

 Noche Toledana lessons Tabs too difficult? Try these video lessons and learn fast
 
                [Musica: Mago de Oz]

e|--------------------------------------|
B|--------8------------7------------5---|
G|-7/9-9----9---5/7-7----7---3/5-5----5-|
D|--------------------------------------|
A|--------------------------------------|
E|--------------------------------------|

e|--------------------|
B|-7-7/8-7-7/8--------|
G|-------------8------|
D|---------------10-9-|
A|--------------------|
E|--------------------|

e|--------------------------|
B|--------8--8/10-8---------|
G|-7/9-9------------11-7----|
D|------------------------9-|
A|--------------------------|
E|--------------------------|

e|--------------------------------|
B|----------10--10/12-10----------|
G|-9/11-11---------------12-11--9-|
D|--------------------------------|
A|--------------------------------|
E|--------------------------------|
            
Submit corrections


        Noche Toledana lessons Hard to play? Try these video lessons and learn fast Noche Toledana lessons
        
↑ Back to top | Tablatures and chords for acoustic guitar and electric guitar, ukulele, drums are parodies/interpretations of the original songs. You may use it for private study, scholarship, research or language learning purposes only