» » »

Magnum - Days Of No Trust Tabs

Artists:  A B C D E F G H I J K L M N O P Q R S T U V W X Y Z # 

Days Of No Trust Tabs

(ver. 1) Click to play this song!
Magnum
 Rating:
4/5 (4 votes)


 Days Of No Trust lessons Tabs too difficult? Try these video lessons and learn fast
 
                
  
                          Magnum / Days of no trust

                       (transcribed in a hurry by mEeK)




E||----------------------|----------------------|----------------------|
B||-----------------2----|----------------------|----------------------|
G||--2----2----4---------|--4----2--------------|----------------------|
D||--2----2--------------|-------2----2---------|------------2---------|
A||--0-------------------|------------2----2----|------------2----4----|
E||----------------------|------------0----0----|--3----4--------------|


        3x                                                                     
--------||----------------------|----------------------|----------------------|
--------||----------------------|----------------------|----------------------|
--2----*||----------------------|----------------------|--6----2----2----2----|
--2----*||--2----2----2----2----|--2----2----2----2----|--6----2----2----2----|
--0-----||--2----2----2----2----|--2----2----2----2----|--4----0----0----0----|
--------||--0----0----0----0----|--0----0----0----0----|----------------------|

                                                             <--- Pray to the future
                                                                     
----------------------|----------------------|-----------------------|
----------------------|----------------------|-----------------------|
-------6----4----4----|------------4---------|-------2-----2----2----|
--2----6----4----4----|--4/---6---------6/---|--4----2--4--2----2----|
--2----4----2----2----|----------------------|-------------0----0----|
--0-------------------|----------------------|-----------------------|

  <--- Past
                                                                        
----------------------|----------------------|-----------------|------||
----------------------|----------------------|-----------------|------||
--2-------------------|--6----6----6----4----|------------4----|------||
--2----2----2----2----|--6----6----6----4----|-------4---------|------||
--0----2----2----2----|--4----4----4----2----|--2--------------|------||
-------0----0----0----|----------------------|-----------------|------||
        


E||--0----0----0----0----|------------|----------------------|------------|
B||--0----0----0----0----|------------|----------------------|------------|
G||--2----1----2----1----|--2~---4~---|--2~---2~---4~---4~---|--2~---4~---|
D||--2----2----2----2----|--2~---4~---|--2~---2~---4~---4~---|--2~---4~---|
A||--0----2----0----2----|--0----0----|--0----0----0----0----|--0----0----|
E||-------0---------0----|------------|----------------------|------------|

     <--- In these days...  <--- We're all livin...             <--- We're all livin..
                                       
----------------------|-------|------||
----------------------|-------|------||
--2----2----4----4----|-------|------||
--2----2----4----4----|--2----|------||
--0----0----0----0----|--2----|------||
----------------------|--0----|------||

       <--- Tellin the same old lie...


                                                                        
E||----------------------|----------------------|----------------------|
B||----------------------|----------------------|----------------------|
G||--6----4~---6~---4~---|--6~---4~---4~---2~---|--4~---2~---4~---2~---|
D||--6~---4~---6~---4~---|--6~---4~---4~---2~---|--4~---2~---4~---2----|
A||--0----0----0----0----|--0----0----0----0----|--0----0----0----0----|
E||----------------------|----------------------|----------------------|

     <--- ...days      
                                                                     
----------------------|----------------------|----------------------|
----------------------|----------------------|----------------------|
----------------------|------------2---------|----------------------|
--2-------------------|------------2----2----|----------------------|
--2----2--------------|--2----4----0----2----|--2--------------2----|
--0----0----3----4----|-----------------0----|--0----3----4---------|

  <--- ....no trust
                   
-----------------||
-----------------||
-------2---------||
-------2----2----||
--4----0----2----||
------------0----||

Outro:

                                                                        
E||----------------------|----------------------|----------------------|
B||----------------------|----------------------|----------------------|
G||----------------------|------------6----2----|--4-------------------|
D||--2-------------------|------------6----2----|--4----2--------------|
A||--2----2--------------|--2----4----4----0----|--2----2----2---------|
E||--0----0----3----4----|----------------------|-------0----0----3----|


                                                                     
----------------------|----------------------|----------------------|
----------------------|------------2---------|----------------------|
-----------------2----|--2----4---------4----|--2-------------------|
-----------------2----|--2-------------------|--2----2--------------|
-------2----4----0----|----------------------|-------2----2---------|
--4-------------------|----------------------|-------0----0----3----|


                        
----------------------||
----------------------||
-----------------2----||
-----------------2----||
-------2----4----0----||
--4-------------------||

Yeah, that's about it. Just grab the parts in order to get the whole song. 
All riffs is in this transcription - somewhere :)

By the way, it's done/tabbed from a bootleg live so it might be slightly 
different than the studio version.


Cya!
            
Submit corrections



        Days Of No Trust lessons Hard to play? Try these video lessons and learn fast Days Of No Trust lessons
        
↑ Back to top | Tablatures and chords for acoustic guitar and electric guitar, ukulele, drums are parodies/interpretations of the original songs. You may use it for private study, scholarship, research or language learning purposes only