Home » M » Magic Man »

Magic Man - Paris Tabs

Artists:  A B C D E F G H I J K L M N O P Q R S T U V W X Y Z # 

Paris Tabs

(ver. 1) Click to play this song!
Magic Man
[Intro]

e|--------------------------------------------------------|
B|-----------7---------------7---------------7-------10-7-|
G|-7-9-9-7-9---9-7---9-9-7-9---9-7---9-9-7-9---9-7--------| x2
D|-----------------9---------------9---------------9------|
A|--------------------------------------------------------|
E|--------------------------------------------------------|


e|------------7------|
B|-------7-10------7-|
G|---7-9--------9----| 
D|-9-----------------|
A|-------------------|
E|-------------------|            
Submit corrections

↑ Back to top | Tablatures and chords for acoustic guitar and electric guitar, ukulele, drums are parodies/interpretations of the original songs. You may use it for private study, scholarship, research or language learning purposes only