» » »

Magic - Let Your Hair Down Tabs

Artists:  A B C D E F G H I J K L M N O P Q R S T U V W X Y Z # 

Let Your Hair Down Tabs

(ver. 1) Click to play this song!
Magic
 Rating:
4/5 (4 votes)

 Let Your Hair Down  lessons Tabs too difficult? Try these video lessons and learn fast
 
                Tuning: Standard

e|-------10--------11-------13--------15---17-------18v|
B|-13b15-----14b16-----16b18----18b20----------15------|
G|-----------------------------------------------------|
D|-----------------------------------------------------|
A|-----------------------------------------------------|
E|-----------------------------------------------------|

e|---------10------------------------------------------|
B|-13/15--------13-11-10-11-13-------------------------|
G|------------------------------10v\-------------------|
D|-----------------------------------------------------|
A|-----------------------------------------------------|
E|-----------------------------------------------------|

e|-----------------------------------------------------|
B|-----------------------------------------------------|
G|----------12-----------14\12-------------------------|
D|----13-15-------13-15--------15----------------------|
A|-15----------15-----------------15\13--15/17--15v----|
E|-----------------------------------------------------|

e|-----------------------------------------------------|
B|-----------------------------------------------------|
G|-----------------------------------------------------|
D|--------------------15\------------------------------|
A|--15-------------------------------------------------|
E|-----15/17-15-13-------------------------------------|

e|---------------------------------------------18/20-18|
B|-----------------------------18b20-18-15-18----------|
G|--------------17b19-17-15-17-------------------------|
D|-----15---17-----------------------------------------|
A|-17--------------------------------------------------|
E|-----------------------------------------------------|

e|------------------------------18b20------------------|
B|-18p15----------------15v\----------18p15------------|
G|-------17p15----15h17---------------------15h17-15---|
D|-------------17--------------------------------------|
A|-----------------------------------------------------|
E|-----------------------------------------------------|

e|--------------------------15-------------15----------|
B|-16r15----------------15-----------18b20-------------|
G|-------15------17b19---------------------------------|
D|----------17-----------------------------------------|
A|-----------------------------------------------------|
E|-----------------------------------------------------|

e|-----------------------------------------------------|
B|--18p15----------------------------------------------|
G|---------17p15------15h17--17b19--17v\---------------|
D|----------------17-----------------------------------|
A|-----------------------------------------------------|
E|-----------------------------------------------------|

e|------15--------13--------10-------------------------|
B|-18---18---15---15---13---13---13---11--8-------8--11|
G|-17--------14--------12--------12---10--10--10--10---|
D|-----------------------------------------------------|
A|-----------------------------------------------------|
E|-----------------------------------------------------|

e|-----------------------------------------------------|
B|-11v\------------------------------------------------|
G|-----------------------------------------------------|
D|-----------------------------------------------------|
A|-----------------------------------------------------|
E|-----------------------------------------------------|
            
Submit corrections


        Let Your Hair Down  lessons Hard to play? Try these video lessons and learn fast Let Your Hair Down  lessons
        
↑ Back to top | Tablatures and chords for acoustic guitar and electric guitar, ukulele, drums are parodies/interpretations of the original songs. You may use it for private study, scholarship, research or language learning purposes only