» » »

Maggie Reilly - You Brightened Up The Darkness Tabs

Artists:  A B C D E F G H I J K L M N O P Q R S T U V W X Y Z # 

You Brightened Up The Darkness Tabs

(ver. 1) Click to play this song!
Maggie Reilly
 Rating:
4/5 (4 votes)

 You Brightened Up The Darkness  lessons Tabs too difficult? Try these video lessons and learn fast
 
                Tuning = Standard


  01:18       01:31        01:40      01:52  02:25       02:39        02:49      02:52
e|-----------|--------b-r-|-------14-|------|-----------|--------b-r-|---h--p---|---h--p---|
B|-8-7-------|-8-7---10---|---s------|-brbr-|-8-7-------|-8-7---10---|-10-12-10-|-10-12-10-|
G|-----7-----|-----9------|-11\12----|-7----|-----7-----|-----9------|----------|----------|
D|-------9-7-|------------|----------|------|-------9-7-|------------|----------|----------|
A|-----------|------------|----------|------|-----------|------------|----------|----------|
E|-----------|------------|----------|------|-----------|------------|----------|----------|


-----------------------
02:54
SOLO 1 
*******                                   h  p               s                s   s
e|------------p----|---s------------|-10-9-10-9----9-10-12-12\14-12-|-14-15-15\17/15-14-----15-14------s------|
B|--------p--8-7-8-|-10\12-10-------|-----------12------------------|-------------------17--------17-15\17-17-|
G|--h--7-9-7-------|----------11----|-------------------------------|-----------------------------------------|
D|-7-9-------------|-------------12-|-------------------------------|-----------------------------------------|
A|-----------------|----------------|-------------------------------|-----------------------------------------|
E|-----------------|----------------|-------------------------------|-----------------------------------------|


e|-17-17-~~~~~~~-|
B|---------------|
G|---------------|
D|---------------|
A|---------------|
E|---------------|


-----------------------

  03:19       03:33        03:46       04:00
e|-----------|--------b-r-|-----------|--------h-----|
B|-8-7-------|-8-7---10---|-8-7-------|-8-7---7-8-10-|
G|-----7-----|-----9------|-----7-----|-----7--------|
D|-------9-7-|------------|-------9-7-|--------------|
A|-----------|------------|-----------|--------------|
E|-----------|------------|-----------|--------------|


-----------------------
04:09
SOLO 2
*******    h                h  p                            h  p
e|-14-15-15-17-15-14----|-14-15-14-------|----------14-15-14-15-14-------|-17-17-|
B|-------------------15-|----------15----|---s---15----------------15-17-|-------|
G|----------------------|-------------14-|-14\16-------------------------|-------|
D|----------------------|----------------|-------------------------------|-------|
A|----------------------|----------------|-------------------------------|-------|
E|----------------------|----------------|-------------------------------|-------|

04:18
    b                                                                              s
e|-21-21-17----|-19-17--b-r-------|------h----------------------------14-15-14-|-15\17-17-15-14----|
B|----------19-|-------17--17~~~~-|-15-14-15-----------------------15----------|----------------15-|
G|-------------|------------------|--------------------------14-16-------------|-------------------|
D|-------------|------------------|----------16--16-14-16-17-------------------|-------------------|
A|-------------|------------------|--------------------------------------------|-------------------|
E|-------------|------------------|--------------------------------------------|-------------------|

    b  b r         b  b  b  br   h                            h  p                      h  p
e|-17-17--17-|-19-21-21-21-19--17-19---br-------------14-15-14-15-14--------b-|-------14-15-14----------17-|
B|-----------|------------------------17--15----15-17----------------17-15-17-|----15----------17-15-------|
G|-----------|-------------------------------16-------------------------------|-16-------------------16----|
D|-----------|----------------------------------------------------------------|----------------------------|
A|-----------|----------------------------------------------------------------|----------------------------|
E|-----------|----------------------------------------------------------------|----------------------------|
                    fade out..................................
05:27   p
e|-15-15-14-------------------14----|-14-15-17--14-15-17---19-15-17-19-|
B|----------17-15-14-15----------17-|----------------------------------|
G|----------------------16-16-------|----------------------------------|
D|----------------------------------|----------------------------------|
A|----------------------------------|----------------------------------|
E|----------------------------------|----------------------------------|

            
Submit corrections


        You Brightened Up The Darkness  lessons Hard to play? Try these video lessons and learn fast You Brightened Up The Darkness  lessons
        
↑ Back to top | Tablatures and chords for acoustic guitar and electric guitar, ukulele, drums are parodies/interpretations of the original songs. You may use it for private study, scholarship, research or language learning purposes only