» » »

Maggie Reilly - Listen To Your Heart Tabs

Artists:  A B C D E F G H I J K L M N O P Q R S T U V W X Y Z # 

Listen To Your Heart Tabs

(ver. 1) Click to play this song!
Maggie Reilly
 Rating:
4/5 (4 votes)

 Listen To Your Heart  lessons Tabs too difficult? Try these video lessons and learn fast
 
                Tuning = Standard


This is all the electric solos in the song. 

-------------------------
INTRO
******
e|---------|------------br-|------------------------|
B|-----7---|-----h--12-11--|-----h------------------|
G|-9-----8-|-9--8-9--------|-9--9-11-9--------------|
D|---------|---------------|-----------9-6--------s-|
A|---------|---------------|---------------7-9-~~~\-|
E|---------|---------------|------------------------|


-------------------------
VERSE 1 
********  
00:39         00:47                  s                                        S
e|-----------|-----7-------|-----7--7\9-7-~~~~~-|-----|-----7-------|-----7--7\9-7-~~~~~-|
B|-----------|--h-----p----|--h-----------------|--br-|--h-----p----|--h-----------------|
G|-----------|-8-9---9-8---|-8-9----------------|-11--|-8-9---9-8---|-8-9----------------|
D|-----------|-----------9-|--------------------|-----|-----------9-|--------------------|
A|-0---2-----|-------------|--------------------|-----|-------------|--------------------|
E|---------2-|-------------|--------------------|-----|-------------|--------------------|


-------------------------
VERSE 2
********
01:25         01:32                  s                                        S           02:00 s
e|-----------|-----7-------|-----7--7\9-7-~~~~~-|-----|-----7-------|-----7--7\9-7-~~~~~-|-----7\9-7-~~-|
B|-----------|--h-----p----|--h-----------------|--br-|--h-----p----|--h-----------------|-9-7----------|
G|-----------|-8-9---9-8---|-8-9----------------|-11--|-8-9---9-8---|-8-9----------------|--------------|
D|-----------|-----------9-|--------------------|-----|-----------9-|--------------------|--------------|
A|-0---2-----|-------------|--------------------|-----|-------------|--------------------|--------------|
E|---------2-|-------------|--------------------|-----|-------------|--------------------|--------------|


-------------------------
CHORUS
*******
02:09              
e|--s---br--------|
B|-7\9-12--9----9-|
G|-----------11---|
D|----------------|
A|----------------|
E|----------------|


-------------------------
SOLO 1
*******
  02:18          s
e|-12-9-12-9-12-9\7--s------|-----5-7-br--------------------|-------------|---Pleck---|-|
B|------------------9\7-5-7-|-5-7-----9-5--s----------------|-------------|--Scratch--|-|
G|--------------------------|-------------4\6-4--s----------|-------------2-1--4-2--6-4-|
D|--------------------------|-------------------6\4-2--s----|--s--2-2-4-2---------------|
A|--------------------------|-------------------------2\4-2-|-2\4-----------------------|
E|--------------------------|-------------------------------|---------------------------|
                                                 Listen
02:28               br p         p     h   h                                                      p     p    b
e|--h--------4------4-5-4-----|-9-7---7-9-7-9-7-|--b----------|-----b----|----16-17-19-19-16-17-16-17-16-19-19-|
B|-5-7-5-------5----------7-7-|-----9-----------|-19-19-17----|-17-19-19-|-19----------------------------------|
G|-------6-4-----6------------|-----------------|----------18-|----------|-------------------------------------|
D|----------------------------|-----------------|-------------|----------|-------------------------------------|
A|----------------------------|-----------------|-------------|----------|-------------------------------------|
E|----------------------------|-----------------|-------------|----------|-------------------------------------|

                                                                                     s         s
e|-17-16----|---h--p---------------|----17--17-16-16-19----------s------|-16-17-19-19\21-19-19-\-|
B|-------19-|-17-19-17----17-------|--------------------17----17-\19-19-|------------------------|
G|----------|----------20----16-18-|-18--------------------16-----------|------------------------|
D|----------|----------------------|------------------------------------|------------------------|
A|----------|----------------------|------------------------------------|------------------------|
E|----------|----------------------|------------------------------------|------------------------|


-------------------------
VERSE 3
********
02:49                    s                                        S           03:16 s
e|-----7-------|-----7--7\9-7-~~~~~-|-----|-----7-------|-----7--7\9-7-~~~~~-|-----7\9-7-~~-|
B|--h-----p----|--h-----------------|--br-|--h-----p----|--h-----------------|-9-7----------|
G|-8-9---9-8---|-8-9----------------|-11--|-8-9---9-8---|-8-9----------------|--------------|
D|-----------9-|--------------------|-----|-----------9-|--------------------|--------------|
A|-------------|--------------------|-----|-------------|--------------------|--------------|
E|-------------|--------------------|-----|-------------|--------------------|--------------|


-------------------------
VERSE 4
********
03:20                    s                                                
e|-----7-------|-----7--7\9-7-~~~~~-|
B|--h-----h----|--h-----------------|
G|-8-9---8-9---|-8-9----------------|
D|-----------9-|--------------------|
A|-------------|--------------------|
E|-------------|--------------------|


-------------------------
03:31
SOLO 2
*******                                  s       h  p                            s
e|---------------------|---------9-12-12-\14-|-11-12-11------14-12-11-12-------14\16--14-16-|------|
B|--------p--------s---|---10-12-------------|----------12---------------14-14--------------|------|
G|-----6-9-6------6\11-|-9-------------------|-------------11-------------------------------|------|
D|---8-------8---------|---------------------|----------------------------------------------|------|
A|-9-----------9-------|---------------------|----------------------------------------------|--s---|
E|---------------------|---------------------|----------------------------------------------|-1\15-|

03:42                           h   s            s       s
e|------------------h----------4-5-5\7-5-4---9-9-\16-16-/14-14-12-12-|
B|-----------------5-7-5-----5-------------7-------------------------|
G|-----------s--4--------6-4-----------------------------------------|
D|--h--2----4\6------------------------------------------------------|
A|-2-4---4-----------------------------------------------------------|
E|-------------------------------------------------------------------|

        h     h                                                                            
e|-12-12-14-12-14-12-|---h-----h------|--h----h-----|--------|--------|----------------------------|
B|-------------------|-12-14-12-14-12-|-9-10-9-10-9-|--h-----|--------|-----------------------9----|
G|-------------------|----------------|-------------|-9-11-9-|--h-----|------p-----s---9---11---11-|
D|-------------------|----------------|-------------|--------|-9-11-9-|--p--7-6-7-7\9----9---------|
A|-------------------|----------------|-------------|--------|--------|-9-7------------------------|
E|-------------------|----------------|-------------|--------|--------|----------------------------|

 this is kinda hard to do, and to figure out not sure about this part.
03:57
    p p             p p           p p           p p           p p           p p           p p
e|-7-4-0--h-p-p--|-7-4-0--p-p--|-7-4-0--p-p--|-7-4-0--p-p--|-7-4-0--p-p--|-7-4-0--p-p--|-7-4-0--p-p--|
B|-------5-7-5-0-|-------7-5-0-|-------7-5-0-|-------7-5-0-|-------7-5-0-|-------7-5-0-|-------7-5-0-|
G|---------------|-------------|-------------|-------------|-------------|-------------|-------------|
D|---------------|-------------|-------------|-------------|-------------|-------------|-------------|
A|---------------|-------------|-------------|-------------|-------------|-------------|-------------|
E|---------------|-------------|-------------|-------------|-------------|-------------|-------------|

    p p           p p            s     s             p      p      s
e|-7-4-0--p-p--|-7-4-0--p-p--|-12\14-12\-|--s---12-16-14--17-16--17\19-17-16----------b----|
B|-------7-5-0-|-------7-5-0-|-----------|-5\14------------------------------17----19---19-|
G|-------------|-------------|-----------|--------------------------------------16---------|
D|-------------|-------------|-----------|-------------------------------------------------|
A|-------------|-------------|-----------|-------------------------------------------------|
E|-------------|-------------|-----------|-------------------------------------------------|

                                                     h  p
e|----21----19----17-16----|----21----19-17-16-17--16-17-16-------------------|
B|-17----17----17-------17-|-17----17-----------------------19-17-16-17-14-12-|
G|-------------------------|--------------------------------------------------|
D|-------------------------|--------------------------------------------------|
A|-------------------------|--------------------------------------------------|
E|-------------------------|--------------------------------------------------|            
Submit corrections


        Listen To Your Heart  lessons Hard to play? Try these video lessons and learn fast Listen To Your Heart  lessons
        
↑ Back to top | Tablatures and chords for acoustic guitar and electric guitar, ukulele, drums are parodies/interpretations of the original songs. You may use it for private study, scholarship, research or language learning purposes only