Home » M » Maggie Reilly »

Maggie Reilly - Everytime We Touch Tabs

Artists:  A B C D E F G H I J K L M N O P Q R S T U V W X Y Z # 

Everytime We Touch Tabs

(ver. 1) Click to play this song!
Maggie Reilly
 Rating:
4.3/5 (19 votes)
                [Intro]
 
e|------------------------------------------|
B|------------------------------------------|
G|------------------------------------------|
D|--6b7r6-4-2-4----2h4p2-----2---4--6-7-9---|
A|-----------------------2-4---------------7|
E|------------------------------------------|
 
e|--------------------------------------------------------------------|
B|------------------------5----------10-12s14--14-17-14-12-10-10-12-9-|
G|--------------------4-6---7-6---------------------------------------|
D|-6b7r6-4-0-2----4-6-----------4-------------------------------------|
A|--------------------------------------------------------------------|
E|--------------------------------------------------------------------|
 
 
[Intermezzo 1]
 
e|------------------------------2-4-5s12-9--------------------|
B|--------------------------------------------12-10-10-12-9---|
G|------------------------------------------------------------|
D|--6b7r6-4-2-4----2h4p2-----2--------------------------------|
A|-----------------------2-4----------------------------------|
E|------------------------------------------------------------|
 
 
[Intermezzo 2]
 
e|------------------------------------------|
B|------------------------------------------|
G|------------------------------------------|
D|--6b7r6-4-2-4----2h4p2-----2---4--6-7-9---|
A|-----------------------2-4---------------7|
E|------------------------------------------|
 
e|----------------------------------------------------------------|
B|------------------------5----------10-12s14--14-17-14-12-10-14--|
G|--------------------4-6---7-6-----------------------------------|
D|-6b7r6-4-0-2----4-6-----------4---------------------------------|
A|----------------------------------------------------------------|
E|----------------------------------------------------------------|
            
Submit corrections

↑ Back to top | Tablatures and chords for acoustic guitar and electric guitar, ukulele, drums are parodies/interpretations of the original songs. You may use it for private study, scholarship, research or language learning purposes only