Home » M » Madsen »

Madsen - So Cool Bist Du Nicht Tabs

Artists:  A B C D E F G H I J K L M N O P Q R S T U V W X Y Z # 

So Cool Bist Du Nicht Tabs

(ver. 2) Click to play this song!
Madsen
e|-----0----------3--------3~-------7------8-------10~---|
B|-----1----------1--------------------------------------|
G|---2---2------2---2------4~----5/7----7/9----9/10------|
D|------------3------------------------------------------|
A|-0-----------------------------------------------------|
E|-------------------------------------------------------|

e|-----0----------3--------3~-------7------5-------3~----|
B|-----1----------1--------------------------------------|
G|---2---2------2---2------4~----5/7----7\5----5\4-------|
D|------------3------------------------------------------|
A|-0-----------------------------------------------------|
E|-------------------------------------------------------|
            
Submit corrections

↑ Back to top | Tablatures and chords for acoustic guitar and electric guitar, ukulele, drums are parodies/interpretations of the original songs. You may use it for private study, scholarship, research or language learning purposes only