Home » M » Madsen »

Madsen - Sirenen Tabs

Artists:  A B C D E F G H I J K L M N O P Q R S T U V W X Y Z # 

Sirenen Tabs

(ver. 1) Click to play this song!
Madsen
Tuning: Standard


e|---------------------------------------------------------------------------| 
B|---------------------------------------------------------------------------|
G|---------------------------------------------------------------------------|
D|---------------------------------------------------------------------------|
A|------------------5-10--7--------------------------------------------------|
E|--0--0--3-0-0--5-7------------0--0--3-0-0--6-5-0--5--3---------------------|
            p                           p
e|---------------------------------------------------------------------------|
B|---------------------------------------------------------------------------|
G|---------------------------------------------------------------------------|
D|--------------------------------------------7--5---------------------------|
A|------------------5-10--7-------------------7--5---------------------------|
E|--0--0--3-0-0--5-7------------0--0--3-0-00--5--3---------------------------| all 2x
            p                           p xx            
Submit corrections

↑ Back to top | Tablatures and chords for acoustic guitar and electric guitar, ukulele, drums are parodies/interpretations of the original songs. You may use it for private study, scholarship, research or language learning purposes only