» » »

Swan Lake Tabs - Madness

Artists:  A B C D E F G H I J K L M N O P Q R S T U V W X Y Z # 

Swan Lake Tabs

(ver. 1) Click to play this song!
Madness Tabs
4/5 (4 votes)
    Swan Lake lessons Tabs too difficult? Try these video lessons and learn fast
                this better than the classicial version

this bit really meant to be on piano but sounds the same

-0------0-0-0-  -0-1-3-1-0--1-3-5-3-1-1-3-5-7-|
---0-1-3-3-3--  ------------------------------|
--------------  ------------------------------|
--------------  ------------------------------|
--------------  ------------------------------|

lead guitar

this goes on through the whole song

this is the bass bit

------------------------------       -1-3-1-1-3-5-3-1-1-3-5-7-|
-0------0-0-0-----------------       -------------------------|
---0-1-3-3-3------------------x2 then-------------------------|
------------------------------       -------------------------|
Submit corrections

↑ Back to top | Madness Tabs for Swan Lake. Lyrics for acoustic guitar and electric guitar. Tablatures and chords are parodies/interpretations of the original songs. You may use it for private study, scholarship, research or language learning purposes only