Home » M » Mad Caddies »

Mad Caddies - Mum's The Word Tabs

Artists:  A B C D E F G H I J K L M N O P Q R S T U V W X Y Z # 

Mum's The Word Tabs

(ver. 1) Click to play this song!
Mad Caddies
one of their easiest songs ever. If you can't figure out this 
song, switch to playing the triangle or something!

INTRO:
G:--------------------------|--------------------------|
D:--------------------------|---3-3--------------------|
A:--3-3---6-6---5-5---------|---------6-6---5-5--6-----|
E:--------------------3-3---|--------------------------|

PRE-VERSE/VERSE
E---8--11--10--10--------|--444--3333-----|
B---8--11--10--10--X3----|--444--3333--X1-|
G---9--12--11--11--------|--555--4444-----|
D--10--13--12--12--------|--666--5555-----|
A------------------------|----------------|
E------------------------|----------------|

PRE-CHORUS/CHORUS TYPE THINGY
E--6--5--6--5--|---6--5----|
B--7--6--7--6--|---7--6----|
G--8--7--8--7--|---8--7----|
D--8--7--8--7--|---8--7----|
A--6--5--6--5--|---6--5----|
E--------------|-----------|

CHORUS THINGY
E---------------------|----|
B---------------------|----|
G--5------------------|--5-|
D--5--6--5--6---5-----|--5-|
A--3--6--5--6---5-----|--3-|
E-----4--3--4--3------|----|
            
Submit corrections

↑ Back to top | Tablatures and chords for acoustic guitar and electric guitar, ukulele, drums are parodies/interpretations of the original songs. You may use it for private study, scholarship, research or language learning purposes only