» » »

Mad Caddies - Betty Bass

Artists:  A B C D E F G H I J K L M N O P Q R S T U V W X Y Z # 

Betty Bass

(ver. 1) Click to play this song!
Mad Caddies
 Rating:
4/5 (4 votes)


 Betty lessons Tabs too difficult? Try these video lessons and learn fast
 
                Band - Mad Caddies
Song - Betty
Album - Duck and Cover
Written by Mad Caddies


Part 1
		Variation
G--------------------    G---------------------
D----4---47---0---20-    D----4---45754-0---20-
A-0h5-0h5--0h2-0h2---    A-0h5-0h5-----2-0h2---
E--------------------    E---------------------

Part 2

G---------------------------------------
D--------474-------474-------------4567-
A--47-475----47-475----25-25-25-255-----
E-5--5------5--5------3--3--3--3--------

Part 3

G----------------------------------
D----454--------4----454--------45-
A--47---7454--47-5-47---7454--47---
E-5---------75----5---------75-----

Part 4

G------6-7-9754------------
D-54--4-4-5----5--4--------
A---75----------57-5----5>-
E--------------------5\----

Part 5

G----------------------------------
D--------------457-------------457-
A--457--4-54--5----457--4-54--5----
E-5---57-5--75----5---57-5--75-----

Part 6

G-------
D-------
A----47-
E-0H5---

Part 7

G---------------------
D---------------------
A-7-76-65-54-43-0H2---
E------------------45-

Song Structure

Part 1
Part 2
Part 3
Part 4
Part 5
Part 4
Part 6
Part 1
Part 2
Part 3
Part 4
Part 7

Thats it, cool bass line. You'll have to listen to the CD to get the timing.
            
Submit corrections



        Betty lessons Hard to play? Try these video lessons and learn fast Betty lessons
        
↑ Back to top | Tablatures and chords for acoustic guitar and electric guitar, ukulele, drums are parodies/interpretations of the original songs. You may use it for private study, scholarship, research or language learning purposes only